PDA

View Full Version : Lagi Dengerin Lagu Apa?



Pages : 1 2 3 [4] 5 6 7 8 9 10 11 12 13 14 15 16 17 18 19 20 21 22 23 24 25 26 27 28 29 30 31 32 33 34 35 36 37 38 39

bonk
22-10-2005, 12:56
wah gue lagi dengerin lagu ini sekarang. :munch1: jadi terasa sedih kalo cintanya gak kesampaian :D

kayak gw yah.........?
:( :( :(

HIKSSS....

willy_212005
23-10-2005, 04:37
tadi daku lag dengerin lagu nya peterpan-menunggu pagi.g repeat sampe 20 kali mgkn ada.
maklum sedang menunggu seseorang yg datang nya bsok pagi heheheh.:curtsie:

bang reza
23-10-2005, 06:08
Jammie Cullum dengan twenty something nya yang menemani jam2 sibuk..

snowiesk8
23-10-2005, 11:12
J-Rox
L'arc en Ciel
Twin - track 1
Full house track 6

Indonesian song are sux bisa nyuri lirik, rhyme, tempo, dan segalanya

MOHAA
23-10-2005, 22:01
LIONEL RICHIE : BACK TO FRONT

• Do It To Me
• My Destiny
• Love Oh Love
• All Night Long
• Easy, Still, Endless Love
• Running With The
• Night
• Sail On
• Hello
• Truly
• Penny Lover
• Say You Say Me
• Three Times A Lady

..................ssssshhhhhhsssshhh....ampe ketiduran................

Udin Petot
23-10-2005, 22:24
DEWA 19 - Kangen



Judul Lagu: Kangen
Artis: Dewa
Tab by: cavalerianz@yahoo.com, p4k_c4r1k@yahoo.com
Editting by: harikiswanto@yahoo.com


--- mbecak jaya raya <cavalerianz@yahooo.com> wrote:
biar lebih akurat ini intro tabnya :

D Bm G A

e:|----------0-------------0----------------0--------------2-0------|
B:|------3-----3---------3---3----------3-----3--------2-------2----|
G:|----2---2-----2-----2-------2------0---0-----0----2---2-------2--|
D:|--0---------------------------0----------------------------------|
A:|-----------------2------------------------------0----------------|
E:|---------------------------------3-------------------------------|

> matursuwun
> --==UzeX==--
>
>
> --- In IndonesiaGuitarTabs@y..., "teguh"
> <p4k_c4r1k@y...> wrote:

> > KANGEN BY DEWA
> >
> > INTRO Dsus2 Bm11 Gsus2 Asus4 2x
> >
> > Verse 1:
> > Dsus2 Bm11 Gsus2 Asus4
> > Kut'rima suratmu, t'lah kubaca, dan aku mengerti
> > Dsus2 Bm11 Gsus2 C6+9 Bm11
> > Betapa merindunya dirimu, akan hadirnya diriku
> > D/F# Gsus2 Bm11 C9
> > di dalam hari-harimu, bersama lagi
> >
> > Verse 2:
> > Dsus2 Bm11 Gsus2 Asus4
> > Kau bertanya padaku, kapan aku, akan kembali lagi
> > Dsus2 Bm11 Gsus2 C6+9 Bm11
> > Katamu kau tak kuasa, menahan gejolak di dalam dada
> > D/F# Gsus2 Bm11 Gsus2 D/F# Em7
> > yang membara menahan rasa, pertemuan kita nanti
> > Asus4 A
> > Saat kau ada disisiku
> >
> > Reff:
> > D D/F# G A Bm
> > Semua kata rindumu semakin membuatku, tak berdaya
> > A G D/F# G
> > menahan rasa ingin jumpa
> > D D/F# G A
> > Percayalah padaku akupun rindu kamu
> > Bm A/C#
> > Ku akan pulang ... melepas semua
> > Em7 A
> > kerinduan, yang terpendam
> >
> > Fill 1 [Gitar Elektrik] D G A Bm F#m G Bm A
> >
> > Verse 3:
> > Dsus2 Bm11 Gsus2 Asus4
> > Kau tuliskan padaku, kata cinta, yang manis dalam suratmu
> > Dsus2 Bm11 Gsus2 C6+9 Bm11
> > Kau katakan padaku, saat ini, ku ingin hangat pelukmu
> > D/F# Gsus2 Bm11 Gsus2 D/F# Em7
> > dan belai lembut kasihmu, takkan kulupa s'lamanya
> > Asus4 A
> > Saat bersama dirimu
> >
> > Bridge:
> > em f#m em f#M em
> > Jangan katakan cinta, menambah beban rasa
> > f#m G a dsus2
> > Sudah simpan saja sedihmu itu, ku akan datang
> >
> > Solo Guitar [Gitar Elektrik]
> > D G/B A/C# F#7/A# Bm G A
> > D G/B A/C# F#7/A# Bm G A G A Bb C A
> >
> > Reff
> > Reff

andhee
24-10-2005, 01:29
lagi suka lagu STRYPER - LONELY ....

Udin Petot
24-10-2005, 02:20
Dream Theater - Hollow Years



hollow years
submitted by: Domondon Regie
khingus@yahoo.com


Solo: (2nd guitar strums)
Dm9 Dm/C Gm Gm9 A4,b9 A
P P
E|-------------3/5-|-5-/6-6------------------|---------------------|----
B|-----5-3-6-------|------------6-8^6\5-6--8-|(8)----3^2-3/5-----8-|----
G|---2-------------|-------------------------|-----3---------------|----
D|-----------------|-------------------------|---------------------|----
A|-----------------|-------------------------|---------------------|----
E|-----------------|-------------------------|---------------------|----

Dm Am9,11 Dm9 Dm11/C
~~~~ P P
E|--------------13---12-12^10------|---------12^10--(13)-13-13-12-10-|--
B|-----10-----10----------------10-|(10)---10-------(15)-15-15-13-11-|--
G|-8/10-----------------------12---|---------------------------------|--
D|---------------------------------|---------------------------------|--
A|---------------------------------|---------------------------------|--
E|---------------------------------|---------------------------------|--

Gm Gm9 A4,b9 A
H P P P H P P
E|-12\----6--6^8^6^5-6---5-------|-------5---------------------|--------
B|---------------------------8^6-|-8---------6^5^6-----5-------|--------
G|-------------------------------|-------------------------7^5-|--------
D|-------------------------------|-----------------------------|--------
A|-------------------------------|-----------------------------|--------
E|-------------------------------|-----------------------------|--------

Dm9 Am4,9 Dm9
P ~~~~~
E|----------5-6-8-6---6^5-----|-----------------------------------------
B|---------6--------------8-6-|-8/10------------------------------------
G|-7------7-------------------|-----------------------------------------
D|----------------------------|-----------------------------------------
A|----------------------------|-----------------------------------------
E|----------------------------|-----------------------------------------

Coda:
C4 C G C2 D4...
E|-----1-------1---|-----1-------0---|-----3-------3---|---------------
B|---1---1---1---1-|---1---1---1---1-|---3---3---3---3-|-etc...--------
G|-----------------|-----------------|-----------------|---------------
D|-----------------|-----------------|-----------------|---------------
A|-3-------3-------|-3-------3-------|---------3-------|---------------
E|-----------------|-----------------|-3---------------|----------^to chorus
(played 2 frets higher)

yossie3660
24-10-2005, 10:06
Thank u brat bruat bro Udin atas lagunya yah.....lagi gue dengerin neh... :D

Once - Dealova.....

aku ingin menjadi mimpi indah dalam tidurmu
aku ingin menjadi sesuatu yg mungkin bisa kau rindu
karena langkah merapuh tanpa dirimu
oh karena hati tlah letih

aku ingin menjadi sesuatu yg selalu bisa kau sentuh
aku ingin kau tahu bahwa ku selalu memujamu
tanpamu sepinya waktu merantai hati
oh bayangmu seakan-akan

kau seperti nyanyian dalam hatiku
yg memanggil rinduku padamu
seperti udara yg kuhela kau selalu ada

hanya dirimu yg bisa membuatku tenang
tanpa dirimu aku merasa hilang
dan sepi, dan sepi

selalu ada, kau selalu ada
selalu ada, kau selalu ada

thanks brat buat bro bonk atas textnya....dalem bener artinya.....

jef
24-10-2005, 11:02
NOFX - THANX GOD it's monday...
:curtsie:

bonk
24-10-2005, 15:45
thanks brat buat bro bonk atas textnya....dalem bener artinya.....

Syetttttttttttttttttt... dah... kok si Yossie bisa berasa sama yah... waktu dengerin lagu ini??? :D :D
Kirain gw aja yg sedih setiap denger lagu ini... (tapi kecanduan!)

Andy Tan
24-10-2005, 16:37
Peter Pan - Kupu2 malam.... Hikzzz....jadi inggat ama kramat tungga ney....(walaupun sudah jadi JIC sekarang :)

jef
24-10-2005, 17:52
SUGAR RAY - When It's Over...
:munch1:

Udin Petot
24-10-2005, 21:19
Syetttttttttttttttttt... dah... kok si Yossie bisa berasa sama yah... waktu dengerin lagu ini??? :D :D
Kirain gw aja yg sedih setiap denger lagu ini... (tapi kecanduan!)
kok gua kgk ngerasain apa2 sih bonk, waktu denger nih lagu http://img.photobucket.com/albums/v627/Udin/Smile/Fpeace2.gif

zoda
25-10-2005, 00:45
wah elo doyan juga bro?....sangkain gue doang neh....:p
Coba cikau demen lagu macem ini ndak?....Exist - Mencari Alasan.... :D

wahhhh bung yossie suka juga yaaa, asiikkk
kita buat fans club exist yukkk. HIHIHIHIHIHI
nanti kita tukar2an deehhh

MOHAA
25-10-2005, 01:59
EXIST : Mencari Alasan

Ikhlasnya hati sering kali disalah erti
Tulusnya budi tidak pernah engkau hargai
Berlalu pergi dengan kelukaan ini
Ku mengalah,ku bersabar

Bertentang mata seolah olah tiada apa
Berpaling muka ada saja yang tidak kena
Mencari sebab serta alasan yang kukuh
Supaya tercapai hajatmu

Manis di bibir memutar kata
Malah kau tuduh akulah segala penyebabnya
Siapa terlena pastinya terpukau
Pujukmu,rayumu,suaramu yang menagih simpati dan harapan

Engkau pastinya tersenyum dengan pengunduran diriku
Tetapi bagiku pula suatu ketenangan
Andainya kita terus bersama belum tentu kita bahagia
Selagi tidak kau ubah cara hidupmu

Ada rahmatnya bila tidak lagi bersama
Terasa jauh diriku ini dengan dosa
Ku tinggalmu walau tanpa kerelaan yang nyata
Kau tidak berubah

Bertentang mata seolah olah tiada apa
Berpaling muka ada saja yang tidak kena
Mencari sebab serta alasan yang kukuh
Supaya tercapai hajatmu

Manis di bibir memutar kata
Malah kau tuduh akulah segala penyebabnya
Siapa terlena pastinya terpukau
Pujukmu,rayumu,suaramu yang menagih simpati dan harapan

Engkau pastinya tersenyum dengan pengunduran diriku
Tetapi bagiku pula suatu ketenangan
Andainya kita terus bersama belum tentu kita bahagia
Selagi tidak kau ubah cara hidupmu

Katalah apa yang kau ingin
Selagi kau dapat berkata
Memang begitu sikapmu semenjak dahulu
Andainya kita terus bersama belum tentu kita bahagia
Selagi tidak kau ubah cara hidupmu

hahahhaaa...jadi inget masa2 dulu :D

Rihananta
25-10-2005, 02:08
kok gua kgk ngerasain apa2 sih bonk, waktu denger nih lagu

Kalo Lagu yang ini gimana :yoyo: Lagu Gituan - Kungpow Chicken :yoyo:

yossie3660
25-10-2005, 08:26
Syetttttttttttttttttt... dah... kok si Yossie bisa berasa sama yah... waktu dengerin lagu ini??? :D :D
Kirain gw aja yg sedih setiap denger lagu ini... (tapi kecanduan!)
Gile bro....ini lagu Dealova kalo bisa tereak mah Once-nya udah dewer kali, gak di player rumah, di jalan sampe di kantor gue repeat terus2an....hahaha....tapi ga tau tiba2 gue dengerin berulang2 sampe jadi addict gitu....tau karena nadanya yang mendayu2 dan teksnya yang mengena setiap ruang2 kepahitan gue.....dalem bener....

yossie3660
25-10-2005, 08:34
wahhhh bung yossie suka juga yaaa, asiikkk
kita buat fans club exist yukkk. HIHIHIHIHIHI
nanti kita tukar2an deehhh
Karena gue kasian Once-nya bisa dewer karena nyanyi mulu buat gue maka gue pindahkan dahulu deh, kasian orang yang ada di ruangan gue bisa2 ikutan tereak juga karena denger itu lagu di repeat 1 track terus....so gue ganti kesini juga bro zoda....ada dari album2 yang terakhir......penyanyi masih sama....gue pernah geber nyaris lagu2 doski di Inul Karaoke PlanGi bro...disono lengkap?....mau tarik2an suara disana?....

Exists - Frustasi...

bonk
25-10-2005, 08:52
kok gua kgk ngerasain apa2 sih bonk, waktu denger nih lagu http://img.photobucket.com/albums/v627/Udin/Smile/Fpeace2.gif

maklumlah, Udin khan dalam hidupnya belum pernah jatuh cinta... hahahaha.... LOL!!!!

<cord gitar nya dah kelar nih, mau ngak Din....? hihihi...... cuma masih cord dasar.. variasinya masih minim... :D >

Udin Petot
26-10-2005, 01:53
maklumlah, Udin khan dalam hidupnya belum pernah jatuh cinta... hahahaha.... LOL!!!!

<cord gitar nya dah kelar nih, mau ngak Din....? hihihi...... cuma masih cord dasar.. variasinya masih minim... :D >
makasih bonk, tapi gua kgk bisa maen gitar loh http://www.cheesebuerger.de/images/more/bigs/e142.gif

andhee
26-10-2005, 02:20
IRON MAIDEN - THE EVIL THAT MEN DO

Love is a razor and I walked the line on that silver blade
Slept in the dust with his daughter, her eyes red with
The slaughter of innocence
But I will pray for her
I will call her name out loud
I would bleed for her
If only I could see her now

Living on a razors edge
Balancing on a ledge
Living on a razors edge

The evil that men do lives on and on.....
The evil that men do lives on and on.....
The evil that men do lives on and on.....
The evil that men do lives on and on.....

Circle of fire my baptism of joy at an end it seems
The seventh lamb slain, the book of life opens before me
But I will pray for you
And some day I may return
Don't you cry for me
Beyond is where I learn

Udin Petot
26-10-2005, 05:32
White Lion - Broken Heart



WRITTEN BY: BRATTA, TRAMP
BY:WHITE LION
ALBUM:FIGHT TO SURVIVE




INTRO:
e----1p0--0h1--1p0-------1p0--0h1--1~----------------|
b-------3----3----3---------3----3-------------------|
g--2-----2----2----2---2-----2----2------------------|
d---2-------------------2----------------------------|
a-0-------------------0------------------------------|
E----------------------------------------------------|

VERSE: (play this a couple of times)
e----1p0--0h1--1p0--------0---------------------------|
b-------3----3----3-----3--3--------------------------|
g--2-----2----2----2--0--0--0-------------------------|
d---2------------------2-----2------------------------|
a-0------------------3--------------------------------|
E-----------------------------------------------------|

(then this) (Here you can add the bass notes).
e----1p0--0h1--1p0--------0~--------------------------|
b-------3----3----3-----3-----------------------------|
g--2-----2----2----2--0--0----------------------------|
d---2------------------2------------------------------|
a(1)-------(0)-------3--------------------------------|
E-------------------(3)-------------------------------|

(play this twice)
e------------------------------------------------|
b------------------------------------------------|
g-----7-7-7--3-3---------------------------------|
d-x\--7-7-7--3-3--3-3-3--5-5---------------------|
a-x\--5-5-5--1-1--3-3-3--5-5---------------------|
E-----------------1-1-1--3-3---------------------|

(play this 4 times)
e------------------------------------------------|
b----5-5h6-6p5----3-5-6-5-3----------------------|
g-7--7-7------7--5---------5---------------------|
d-7--7-7-------7-5-------------------------------|
a-5-5-5----------3-------------------------------|
E------------------------------------------------|

BRIDGE:
e------------------------------------------------|
b----3~-1~--------------3~-1~--------------------|
g-3~-2~-0~-0-2-3-2-0-3~-2~-0~--------------------|
d-3~-0~-2~-----------3~-0~-2~--------------------|
a-1~----3~-----------1~----3~--------------------|
E------------------------------------------------|

CHORUS:(play twice)
e------------------------------------------------|
b------------------------------------------------|
g---7-7-7--3-3--------------3-3--3-3-3--5-5-5----|
d---7-7-7--3-3--3-3-3--5-5--3-3--3-3-3--5-5-5----|
a---5-5-5--1-1--3-3-3--5-5--1-1--1-1-1--3-3-3----|
E---------------1-1-1--3-3-----------------------|

SOLO:
e--------------------------------------------------|
b------10~-t15p10-t17p10--(t15p)8h10-t15p8~--------|
g-/7tr9--------------------------------------------|
d--------------------------------------------------|
a--------------------------------------------------|
E--------------------------------------------------|

e--------------------------------------------------|
b-t10p6h8-t10p5h6h8t10-p8p6p5~-t10p5h6h8t10p8~-----|
g--------------------------------------------------|
d--------------------------------------------------|
a--------------------------------------------------|
E--------------------------------------------------|

e--------------------------------------------------|
b-t10p8p6p5-h6p5-5---------------------------------|
g-----------------7-t10p5h9-t10p5h9-t10p5h9-t10p5h9|
d--------------------------------------------------|
a--------------------------------------------------|
E--------------------------------------------------|

e--------------------------------------------------|
b--------------------------------------------------|
g-t12p5h9-t12p5h9-t12p5h9-t12p5h9--t12p9p5---------|
d--------------------------------------------------|
a--------------------------------------------------|
E--------------------------------------------------|


E---------------------------------------------------|
e-t15p10h13-t15p10h13-t15p10h13-t15p10h13-----------|
b---------------------------------------------------|
g---------------------------------------------------|
d---------------------------------------------------|
a---------------------------------------------------|
E---------------------------------------------------|

e--------------------------------------------------|
b-t17p10h13-t17p10h13-t18p10h13-t18p10h13----------|
g--------------------------------------------------|
d--------------------------------------------------|
a--------------------------------------------------|
E--------------------------------------------------|

e--------------------------------------------------|
b-t17p10h13-t15p10h13-t15p10h13-13b-15-17b-17br-15-|
g--------------------------------------------------|
d--------------------------------------------------|
a--------------------------------------------------|
E--------------------------------------------------|

e-------------------------------------13-15-17----|
b-17br-17br-15--17br-17br-13--13-15-17------------|
g-------------------------------------------------|
d-------------------------------------------------|
a-------------------------------------------------|
E-------------------------------------------------|

e------------------------------------13h15h17-13~--|
b-13h15h17-13h15h17-13h15h17-13h15h17--------------|
g--------------------------------------------------|
d--------------------------------------------------|
a--------------------------------------------------|
E--------------------------------------------------|


BRIDGE


e----------------------------------------------12h13h15-17-19b-|
b----3~-1~--------------3~-1~----------12h13h15----------------|
g-3~-2~-0~-0-2-3-2-0-3~-2~-0~--10h12h14------------------------|
d-3~-0~-2~-----------3~-0~-2~----------------------------------|
a-1~----3~-----------1~----3~----------------------------------|
E--------------------------------------------------------------|

CHORUS: (put some slides in on the 2 last choruses)
e----------------------------------------------(19b)-|
b----------------------------------------------------|
g---7-7-7--3-3--------------3-3--3-3-3--5-5-5--------|
d---7-7-7--3-3--3-3-3--5-5--3-3--3-3-3--5-5-5--------|
a---5-5-5--1-1--3-3-3--5-5--1-1--1-1-1--3-3-3--------|
E---------------1-1-1--3-3---------------------------|

OUTRO:
e--------------------------------------------------|
b--------------------------------------------------|
g-7-9-10-9-7--7-9-10-12-7--7-9-10-9-7--------------|
d--------------------------------------------------|
a(5-7-8--7-5--5-7-8--10-5--5-7-8--7-5)-------------|
E--------------------------------------------------|

e-----2~--------------------------------------------|
b-3-3-3~--------------------------------------------|
g-2-3-2~--------------------------------------------|
d-0-3-0~--------------------------------------------|
a---------------------------------------------------|
E---------------------------------------------------|

yossie3660
26-10-2005, 08:39
Kemayu bener nih lagu....tapi asyik pula......;)
Bee Gees - Don't Forget To Remember....

Warlords
26-10-2005, 09:32
tumben pagi ini pengennya denger lagu ini. lagu yg selalu gue puter kalo habis ribut ama yayang :D


After Tonight

Staring up at the moonlight
Looking up at the stars
I’m alone and I just want to be with you
But I don’t know where you are

Maybe I took you for granted
So blind, I let your love slip away
Now I’m missing you so much I can’t stand it
Please believe me when I say,

After tonight, I never will be the same again
This time I’m sure that nothing means more
Than giving you all the love I can
After tonight I promise, I’m gonna be a better man
Just hold me tight, and I’ll be all right
After tonight

Anticipating the moment
When I can make love with you again
Patience is a virtue I’m finding
Very hard to understand

After tonight, I will never be the same again
This time I’m sure that nothing means more
Than giving you all the love I can
After tonight I promise, I’m gonna be a better man
Just hold me tight, and I’ll be all right
After tonight

oldmrfletcher
26-10-2005, 12:39
ada yg tau snow rose gak? mantab nih vokalnya, mendayu dayu

MOHAA
26-10-2005, 22:15
Journey - Faithfully
Frontiers
1983

Highway run
Into the midnight sun
Wheels go round and round
You're on my mind
Restless hearts
Sleep alone tonight
Sending all my love
Along the wire

They say that the road
Ain't no place to start a family
Right down the line
It's been you and me
And lovin' a music man
Ain't always what it's supposed to be
Oh, girl, you stand by me
I'm forever yours
Faithfully

Circus life
Under the big top world
We all need the clowns
To make us smile
Through space and time
Always another show
Wondering where I am
Lost without you

And being apart
Ain't easy on this love affair
Two strangers learn to fall in love again
I get the joy of rediscovering you
Oh, girl, you stand by me
I'm forever yours
Faithfully

Whooa, oh-oh-ooh
Whooa, oh-oh-ooh, oh
Whooa, oh-oh-oh, oh-whoooooa-oh
Faithfully
I'm still yours

I'm forever yours
Ever yours
Faithfully

yossie3660
27-10-2005, 08:15
Exists - Kau Akan Pulang....

oldmrfletcher
27-10-2005, 15:01
BAD RELIGION - I Love My Computer

I love my computer
You make me feel alright
Every waking hour
and every lonely night

I love my computer
for all you give to me:
predictable errors and no identity
And it's never been quite so easy
I've never been quite so happy

All I need to do is click on you
and we'll be joined
in the most soul-less way
And we'll never ruin each other's day
'cuz when I'm through I just click
and you just go away

I love my computer
you're always in the mood
I get so turned on
when I turn on you

I love my computer
you never ask for more
You can be a princess
or you can be my whore
And it's never been quite so easy
I've never been quite so happy

All I need to do is click on you
and we'll be joined
in the most soul-less way
And we'll never ruin each other's day
'cuz when I'm through I just click and you just go away

the world outside is so big
but it's safed in my domain
Because to you
I'm just a number
and a clever screen name

All I need to do is click on you
and we'll be together for eternity
And no one is ever gonna take my love
from me because I've got security
her password and a key

:D :D :D a must have anthem :D :D :D

Udin Petot
27-10-2005, 22:54
Tak Bisakah - Peter Pan (OST Alexandria)

hatiku bimbang namun tetap pikirkanmu
selalu selalu dalam hatiku
ku melangkah sejauh apapun itu
selalu engkau di dalam hatiku

ku berjalan berjalan memutar waktu
berharap temukan sisa hatimu
mengertilah ku ingin engkau begitu
mengerti kau di dalam hatiku

reff: tak bisakah kau menungguku
hingga nanti tetap menunggu
tak bisakah kau menuntunku
menemani jalan hidupku

ku berjalan berjalan memutar waktu
berharap temukan sisa hatimu
mengertilah ku ingin engkau begitu
mengerti kau di dalam hatiku

dara kau menjadi hidupku
kemana kau tahu isi hatiku
tunggu sejenak aku di situ
jalanku jalan menemukanmu

repeat reff

yossie3660
28-10-2005, 11:09
Geber lagu kesedihan abadi....

Once - Dealova.....

jef
28-10-2005, 11:22
gy denger yg riang2...
Kebunku - Cantik...
:curtsie:

si_yoyo
28-10-2005, 11:31
Once - Dealova
Audy - Temui aku
Ratu - Teman tapi mesra
Tere - Dosa termanis

diulang-ulang dari kemaren :D

Udin Petot
28-10-2005, 22:53
http://img.photobucket.com/albums/v627/Udin/Tutorial/lagu.jpg

mudamandiri
29-10-2005, 00:29
http://img406.imageshack.us/img406/2834/foobar0sj.jpg


Tengkiu 1000x Wyn... :D

Tri97
29-10-2005, 00:36
The Ink Spots- Maybe

Ada nostalgia dgn lagu ini:)

yossie3660
31-10-2005, 10:05
Peterpan - OST Alexandria\Peterpan - Aku_dan_Bintang....

:D :D :D

Erius
31-10-2005, 10:14
http://www.emeraldes.cjb.net/snapsut005.jpg

Udin Petot
01-11-2005, 00:21
http://www.emeraldes.cjb.net/snapsut005.jpg
dengarin lagu apaan nih http://www.cheesebuerger.de/images/more/bigs/e058.gif

jeffins
02-11-2005, 00:50
aku milikmu - dewa19

Udin Petot
02-11-2005, 01:54
Bryan Adams - Everything I Do (I Do It For You)




* * * * | * * * * |
2---------------2-------2-3-3-2-| 0---------------0-------0-5-5-0- |
----3-------3-------3-----------| ----2-------2-------2---2-5-5--- |
--------2-------2-----------0---| --------2-------2--------------- |
0-----------------------0-------| 2------------------------------- |

* * * * | * * * * |
3---------------3---------0-2---| 0---------------0-------0---0--- |
----0-------0-------0---3---3-3-| ----2-------2-------2-------2--- |
0-------0-------0-------2-----2-| --------2-------2-------2------- |
--------------------------------| -------------------------------- |

* * * * | * * * * |
2---------------2-------2-3-3-2-| 0---------------0-------0-5-5-0- |
----3-------3-------3-----------| ----2-------2-------2---2-5-5--- |
--------2-------2-----------0---| --------2-------2--------------- |
0-----------------------0-------| 2------------------------------- |

3---------------3-------3+------| 2----0------2---0-----------0--- |
----0-------0-----------0-------| 3-----3-----3---2--------------- |
0-------0-------0-------0-------| ------------2------------------- |
------------------------0-------| 0-----------0---2--------------- |

etc.. ihopefully by now you can figure out that I'm basically just
playing the chords with a certain plucking order. that's all it really is.
Here are the chords I use (only top four strings) (DGBE)

VERSE:

D(0232)A(2220)G(0003)
Look Into my eyesThere you'll seeWhat you mean to

A(2220)
Me....

D(0232)A(2220)G(0003)
search your heartsearch your soul..& when you find me there you will

D(0232)A(2220)
search...nomore

G(0003)D(0232)A(2220)
You can't tell me it's not worth tryin'for
You can't tell me it's not worth dyin'for

you know it's..
D(0232)A(2220)D(0232)
true..everything Ido... I do it for you..

VERSE2:
Look into your heart..you will find..there's nothing there to hide
Take me as I am..take my life, I'd give it all - I would sacrifice

Don't tell me it's not worth fighting for
I can't help it, there's nothing I want more
You know it's true, everything I do..I do it for you

A(2220)D(0232)A(2225)G(0003)
Ther's no lovelike your loveand no othercould give more love

D(0232)A(2225)*(4546)A(2225)
There's no whereunless you're thereall the timeall the way

*-- not sure what chord this is.. was about to put Ab but that's wrong...

(instrumental) G(0003) D(0232) G(0003) D(0232)

G(0003)D(0232)A(2220)
Can't tell me it's not worthtryin'for
I can't help it there's nothin'I wantmore

yeahh..

D(0232)A(2225)G(0003)
I'd fight for youI'd lie for youWWalk the wire for you

G(0003)A(2225)*(3336)
yeah i'd dieforyou....


D(0232)A(2220)G(0003)
you know it's trueeverything I dowhoa....

A(2220)D(0232)
I'd do it for you..

MOHAA
02-11-2005, 02:02
Artist: Fugees
Song: Killing Me Softly

Strumming dub plates with our fingers,
Eliminate sounds with our song,
Killing a sound boy with this sound,
Killing a sound boy with this sound,
Taking sound boys’ lives with this dub,
Killing him softly with this sound.
Strumming my pain with his fingers,
Singing my life with his words,
Killing me softly with his song,
Killing me softly with his song,
Telling my whole life with his words,
Killing me softly with his song.
[lauryn]
I heard he sang a good song, I heard he had a style,
And so I came to see him and listen for a while.
And there he was this young boy, stranger to my eyes,
Strumming my pain with his fingers,
Singing my life with his words,
Killing me softly with his song,
Killing me softly with his song,
Telling my whole life with his words,
Killing me softly with his song.
I felt all flushed with fever,
Embarrassed by the crowd,
I felt he found my letters and read each one out loud.
I prayed that he would finish,
But he just kept right on strumming my pain with his fingers,
Singing my life with his words,
Killing me softly with his song,
Killing me softly with his song,
Telling my whole life with his words,
Killing me softly with his song
[clef]
Yo l-boogie, take it to the bridge
[lauryn]
(bust it)
Strumming my pain with his fingers,
Singing my life with his words,
Killing me softly with his song,
Killing me softly with his song,
Telling my whole life with his words,
Killing me softly with his song.
Strumming my pain with his finger, yeah he was . . .
[shoutouts and fade]

The hottest songs from Fugees

drubicza
02-11-2005, 02:31
-- khusus jam 20:00 s/d 05:00 --
The Prodigy, Paul Van Dyk, Scooter, Dj Encore, Groove Coverage, Cirrus

-- khusus jam 08:00 s/d 17:00 --
Marilyn Manson, Rammstein, Crazy Frog...etc

Udin Petot
08-11-2005, 03:57
Aerosmith - I Don't Want To Miss A Thing



By Mark Platypus (that isn't my real name but i'm not going to tell you that)
================================
E B A C#m F# C# D#m | G D C Em A E F#m
E--0--2--0---4---2---4----6------|-3--5--3--7---5--7---9------------
B--0--4--2---5---2---6----7------|-3--7--5--8---5--9---10-----------
G--1--4--2---6---3---6----8------|-4--7--5--9---6--9---11-----------
D--2--4--2---6---4---6----8------|-5--7--5--9---7--9---11-----------
A--2--2--0---4---4---4----6------|-5--5--3--7---7--7---9------------
E--0--2--0---4---2---4----6------|-3--5--3--7---5--7---9------------


(from the Armageddon Soundtrack)

Intro:(strings)

e|--------------|
h|--------------|
g|--------------|
D|--------2---|
A|--2-4------|
E|-------------|

e|-----------------------------------|
h|-----------------------------------|
g|-----------------------------------|
D|-------2------4-2-----------2--| (repeat)
A|--2-4---------------5-4-5-----|
E|----------------------------------|

e|-------------|
h|-------------|
g|-------------|
D|-------------|
A|--5-4-2-0-|
E|-------------|

D A Bm
1. I could stay awake just to hear you breathing
G D
Watch you smile while you are sleeping
Em7
While you're far away dreaming
D A Bm
I could spend my life in this sweet surrender
G D
I could stay lost in this moment forever
C#m Bm D A
Every moment spent with you is a moment I treasure

D A
Chorus: Don't want to close my eyes
Em
I don't want to fall asleep
G
Cause I'd miss you baby
D A D
And I don't want to miss a thing
A
Cause even when I dream of you
Em
The sweetest dream will never do
G
I'd still miss you baby
D A
And I don't want to miss a thing





D A Bm
2. Lying close to you feeling your heart beating
G D
And I'm wondering what you're dreaming
Em7
Wondering if it's me you're seeing
D
Then I kiss your eyes
A Bm
And thank God we're together

A Bm7 D A
I just want to stay with you in this moment forever
Forever and ever

>>Chorus<<



C
Bridge: I don't want to miss one smile
G
I don't want to miss one kiss
Bb
I just want to be with you
F
Right here with you, just like this
C
I just want to hold you close
G
Feel your heart so close to mine
Dm
And just stay here in this moment
A
For all the rest of time

>>Chorus<<
repeat and fade out.

si_yoyo
08-11-2005, 04:12
Bunga Citra lestari - Saat Kau Pergi (OST Dealova)

yossie3660
08-11-2005, 09:26
Once - Dealova...... dah lama juga ga denger versi speaker....biasanya di kuping gue doang......rolling sampe bosen dah ni lagu.....:D

yossie3660
08-11-2005, 16:25
Denger2 sih bagus, blon denger lagunya, jadi teksnya dulu deh.....

Mengapa Tak Kau Ucap Sekarang - Melly Goeslaw (OST Apa Artinya Cinta)

sehidupku datang
menghampiri belahan jiwa
entah mengapa rasa hatiku
kau dan aku ada sesuatu

* di saat engkau bicara
sangat dekat di wajahku
harum nafasmu bagaikan bunga
yg bersemi di hatiku

reff: aku datang untuk engkau
karna engkau ku jatuh cinta
bila sang cinta tumbuh di hati kita
mengapa tak kau ucap sekarang

repeat *
repeat reff

repeat *
repeat reff

dan harapku malam tak menipu
cahayanya menusuk hatiku
bila sang cinta tumbuh di hati kita
mengapa tak kau ucap
mengapa tak kau ucap
(mengapa tak kau ucap)
mengapa tak kau ucap sekarang
-----

Apa Artinya Cinta - Melly Gouslaw feat. Ari Lasso (OST Apa Artinya Cinta)

tiba-tiba kau ada
kemudian engkau hadir
laksana kerdil ku memeluk
lihat aku lebih dalam

di matamu ku melihat
ada cinta yg tersirat
iringi hati merebak

barangkali aku salah
ku terdiam bukan bisu
tahu engkau besar malu
tutupi rasa gelisah

* biar saja waktu nanti
yg menikmati kisah ini
bersamamu aku senang

reff: belum juga kah kau menyadarinya
akulah yg pantas untuk kau cintai
di bawah langit biru aku bersumpah
diriku tanpamu apa artinya cinta

arti cinta ini sudah menelan waktuku
siang malam hanya untuk pikirkan engkau
sejuta kali aku berani bersumpah
diriku tanpamu apa artinya cinta

repeat *
repeat reff
-----

yossie3660
10-11-2005, 08:29
Eyes Wired Shut - EDGEWATER......

:D :p ;) :rolleyes:

XP_On
10-11-2005, 17:11
When You Tell Me That You Love Me

kowal
10-11-2005, 17:53
Duncan Sheik - Now or never :D

ahmandonk
10-11-2005, 19:28
me... lagi dengerin lagu2 TANGGA!! :) keren2 yah :)

dewanggaba
10-11-2005, 21:23
lagi dengerin lagunya Sammy Cheng - Cha Ju
____________
Good Mandarin Listener

drubicza
11-11-2005, 02:43
dgr lagu t.A.T.u - Dangerous and Moving (Album)

Udin Petot
11-11-2005, 03:14
Iron Maiden - Hallowed Be Thy Name



|--------------------------------|--------------------------------|
|--12---10--8---7/8---7---5---7--|--12---10--8---7/8---7---5---4--|
|--------------------------------|--------------------------------|
|--------------------------------|--------------------------------|
|--10---9---7---5h7---5---3---5--|--10---9---7---5h7---5---3---2--|
|--------------------------------|--------------------------------|
1 2 2 1 2 1 1 1 1 2 2 1 2 1 1 1

BASSLINE:

|---------------------------------------------------------|
|-----------------------------------------------0----0h2--|
|------------------------------------------3--------------|
|--0----0----0----0----0----0----0----0-------------------|

LEAD UNDER "Running Low" etc.
These first two bars are repeated over and over on the album
version. I've gone on to show roughly how it's played live
The first trill allows Dave to get the pick out of his teeth!

RIFF A: with RHYTHM 1
|---------------------------------|-------------------------------|
|---------------------------------|-------------------------------|
|--14b16--14--12--11h12-11--9--11-|-14b16--14--12--11h12-11--9--8-|
|---------------------------------|-------------------------------|
|---------------------------------|-------------------------------|
|---------------------------------|-------------------------------|

(LIVE)
|--trill--------|-------------|-----------------------------------------|
|--10h12p10etc--|-------------|-----------------------------------15b17-|
|---------------|--RIFF A-X2--|--14b16-14b16-14b16-14b16~--14p12--------|
|---------------|-------------|-----------------------------------------|
|---------------|-------------|-----------------------------------------|
|---------------|-------------|-----------------------------------------|


RHYTHM 1:
This is doubled by the bass. It is the rhythm that is used for
the verses later on in the song aswell.
E(m) C D E(m)
|--------------|-------------|-----------|------------------------|
|--------------|-------------|-----------|------------------------|
|--------------|-------------|-----------|------------------------|
|--9-----------|--5----------|--7--------|--9--------5p4---5p4----|
|--7-----------|--3----------|--5--------|--7------------7-----7--|
|--------------|-------------|-----------|------------------------|

RIFF B:
This is the riff between 'Running Low' and 'When the priest..'
As I suspected I was playing this wrong-sheer laziness!
This should be a lot closer to the proper way. The hammers
and pulls may or may not be the actual way its played but if
you want to play it as fast as its played live it's
definitely the easiest way. Just listen carefully for the timing.

Bass plays Rhythm 1.

BOTH GUITARS
|----------------------------------|------------------------------|
|----------------------------------|------------------------------|
|--------------------4-------------|------------------4-----------|
|-----4h5p4-5-7p5p4-----5p4-5p4----|------4---4h5p4-7---5p4-5p4---|
|--7----------------------------7~-|----7---7-------------------7-|
|----------------------------------|------------------------------|


RHYTHM FOR SINGING:
E(m) G C A D
|-----------------------------------------------------------------|
|-----------------------------------------------------------------|
|-----------------------------------------------------------------|
|--9------------------------5------------------7------------------|
|--7---------------------5--3---------------7--5------------------|
|------------------------3------------------5---------------------|
When the priest... Take a look... Of a world...

B E B C E
|------------------------------|------------------|
|------------------------------|------------------|
|------------------------------|------------------|
|-----9--4--5---------5-4------|------------------|
|--9--7--2--3--2-3-2------7-5--|-(Back to Start)--|
|--7---------------------------|------------------|

E(m) C D E B C E(m)
|-----------------------------------------------------|-----------|
|-----------------------------------------------------|-----------|
|-----------------------------------------------------|-----------|
|--9--------5--------7--------9--4--5--------5-4------|--9--------|
|--7--------3--------5--------7--2--3--2-3-2-----7-5--|--7-etc----|
|-----------------------------------------------------|-----------|
Somebody...

After the singing play RIFF B

RIFF C:
Gtr I (Dave)
E(m)
|-------------------------------------------------|
|-------------------------------------------------|
|-------------4---(4)----------4-----------4------|
|---------4-5--------5-4---4-5---5-4---4-5---5-4--|
|--7---(7)---------------7-----------7------------|
|-------------------------------------------------|

C
|-------------------------------------------------|
|-------------------------------------------------|
|-------------4---(4)----------4-----------4------|
|---------4-5--------5-4---4-5---5-4---4-5---5-4--|
|--3---(3)---------------3-----------3------------|
|-------------------------------------------------|

Gtr II (Adrian) just plays the first measure above over and
over (i.e. doesn't change to C)and the bass plays in unison
with Dave.
Then Dave continues to play RIFF C,(leaving out the notes in brackets),
while Adrian plays the following harmony and Steve plays the following
bassline.

RIFF C HARMONY:
|------------------------------------------------|
|------------------------------------------------|
|-----------7---------------7-------------7------|
|--5----7-9------9-7-5--7-9----9-7-5--7-9---9-7--|
|------------------------------------------------|
|------------------------------------------------|


|-----------------------------------------------|
|-----------------------------------------------|
|-----------7/9------------7-------------7------|
|--5----7-9-----9-7-5--7-9----9-7-5--7-9---9-7--|
|-----------------------------------------------|
|-----------------------------------------------|

BASSLINE:
|-----------------|------------------|----|
|-----------------|------------------|----|
|--7----------7-5-|-3------------3-5-|-7--|
|-----------------|------------------|----|

NEXT VOCAL PART:
When the guards... etc. This is played with RHYTHM 1.

Then it goes back to RIFF C with Dave playing RIFF C as
written without the notes in brackets and Adrian playing
the first bar over and over (as before).

BRIDGE:
Gtr I (Dave)
|------------------------------------------------------|
|-----12-----------12-----------12-----------12--------|
|--9-----11-12--9-----11-12--9-----11-12--9-----11-12--|
|------------------------------------------------------|
|------------------------------------------------------|
|------------------------------------------------------|

RHYTHM:
|-------------------------------------------|
|-------------------------------------------|
|-----9----------------5-------------9------|
|--9--9-------------5--5----------9--9------|
|--9--7-------------5--3----------9--7-etc--|
|--7----------------3-------------7---------|

FAST BIT:
|--------------------------------------------|
|--------------------------------------------|
|-----------------4--------------------------|
|-----4--5--4--5-----5--4--5--4--------5--7--|
|--7-----------------------------7--5--3--5--|
|--------------------------------------------|

RHYTHM FOR SOLO'S:

E(m)
|---------------------------------------------------|
|---------------------------------------------------|
|---------------------------------------------------|
|--9--------------------------------5p4--0----------|
|--7----------------------------------------3p2-----|
|--0---------------------------------------------3--|

D
|---------------------------------------------------|
|---------------------------------------------------|
|---------------------------------------------------|
|--7--------------------------------5p4--0----------|
|--5----------------------------------------3p2-----|
|------------------------------------------------3--|


BIT AFTER SOLO'S:
Play three times

E(m)
|--------------------------------------------------------------|
|--------------------------------------------------------------|
|--------------------------------------------------------------|
|--9---------------------------------5-------------5-----------|
|--7------------------------------7-----7--5----7-----7--5--7--|
|--0-----------------------------------------------------------|

On the third repeat Adrian plays:
|--------------------------------------------------------------|
|--------------------------------------------------------------|
|------------------------------------7~------------5~----------|
|--9------------------------------7-----7--5----7-----7--5--7--|
|--7-----------------------------------------------------------|
|--0-----------------------------------------------------------|

BOTH GUITARS
|--------------------------------------------------------------|
|--------------------------------------------------------------|
|--------------------------------------------------------------|
|--9-----------------------------------------------------------|
|--7---STRUM---------------------------------------------------|
|--0-----------------------------------------------------------|


HARMONY:
Dave plays RIFF B as before and Adrian plays the following.
What I said earlier about tha hammers and pulls still applies.

|------------------------------------|----------------------------------|
|------------------------------------|----------------------------------|
|----------------------7-------------|----------------------7-----------|
|-----7h9p7-9--10p9p7----9p7-9p7-----|--------7----7h9p7-10---9p7-9p7---|
|--10----------------------------10~-|-----10---10--------------------10|
|------------------------------------|----------------------------------|

As the harmony part nears it's end the following part is played
in place of the second bar of RIFF B:

E(m) B(m) C
|----------------------------------------------------|
|----------------------------------------------------|
|----------------------------------------------------|
|--9------4------5-------------------5---4-----------|
|--7------2------3-----2---3---2-------------7----5--|
|----------------------------------------------------|

ENDING:
For Yeah, Yeah, Yeah... play RHYTHM 1. When Dave returns to
the E power chord he plays a dive bomb with the T-bar.
Then play the lead part from the BRIDGE as shown above except
with this rhythm part.

B E(m) A D G C A D
|-----------------------------------------------------------------|
|-----------------------------------------------------------------|
|------9------------------7--------------5--------------7---------|
|--9---9--------------7---7----------5---5----------7---7---------|
|--9---7--------------7---5----------5---3----------7---5---------|
|--7------------------5--------------3--------------5-------------|

and eventually
B E(m)
|-------------------------------------0-0-0-0-----0-0-0-0---------|
|-------------------------------------0-0-0-0-----0-0-0-0---------|
|-------9-----------------------------9-9-9-9-----9-9-9-9---------|
|---9---9-----------------------------9-9-9-9-----9-9-9-9---------|
|---9---7-STRUM-----------------------7-7-7-7-----7-7-7-7---------|
|---7---------------------------------0-0-0-0-----0-0-0-0---------|

MOHAA
11-11-2005, 03:21
Fahmy shahab : Kopi dangdut :D

drubicza
11-11-2005, 03:34
rammstein - benzin

Udin Petot
11-11-2005, 04:15
Gun's 'N Roses - Sweet Child O' Mine



Intro:

e:|--------------14----13-----|--------------14----13-----|
B:|-----14--------------------|-----14--------------------|
G:|:-------13-11----13----13-:|:-------13-11----13----13-:|
D:|--11-----------------------|--13-----------------------|
A:|---------------------------|---------------------------|
E:|---------------------------|---------------------------|


e:|--------------14----13-----|--------------14----13-----|
B:|-----14--------------------|-----14--------------------|
G:|:-11----13-11----13----13-:|:-------13-11----13----13-:|
D:|---------------------------|--11-----------------------|
A:|---------------------------|---------------------------|
E:|---------------------------|---------------------------|

ENDING :
|--------------------------------------------------------------------|
|-----------------------------------------------------------------9--|
|---------------------------------------------------------------9----|
|--14-/-9----9/5---------------------------------------------9-------|
|---------------------10-/-7-/-2---------------------------7---------|
|-------------------------------------5-/-3hb---3-/-0----------------|

andhee
11-11-2005, 06:38
lagi gak denger lagu.... hdd gue yg 200GB isinya mp3 koleksi gue lagi gak kedetek.....

yossie3660
11-11-2005, 08:13
The Electric Joe Satriani II\STARRY NIGHT......:D

yossie3660
11-11-2005, 14:35
Kenape gue jadi kemayu gini yah?......

Titi Dj - 05.Sempat Melayani Hatimu.....

dewanggaba
11-11-2005, 14:42
wah kasian tuh bung andhee, coba bang, liat thread ente yang sekarang.

jef
11-11-2005, 15:23
karena cuaca di sini sangat gelap gulita *ujannya gag turun:confused:?
prioritas 1:
dengerin lagu yg dapat membangkitkan adrenalin...
:D

ahmandonk
11-11-2005, 17:25
duh.. pengen denger lagu yg enak apa yah ?? yang gak ribut2 banget... lebih prefer sich instrumen :) ada ide ?

HRazakee
11-11-2005, 22:18
duh.. pengen denger lagu yg enak apa yah ?? yang gak ribut2 banget... lebih prefer sich instrumen :) ada ide ?

Klo instrumental sih lumayan banyak referensinya, di piano boleh coba dengar David Foster ato Richard Clayderman, Biola mentok di V-Mae-lah, Gw baru dapetin CD Dewa Budjana album Gitarku, lumayan buat relaksasi sekaligus mengenang jalan-jalan ke Bali kemaren hehehe.. ... :D

Udin Petot
12-11-2005, 02:44
Dream Theater - Through Her Eyes



Intro
C|----------------------------------------------------------------------------------|---------------------||
G|------------------------------------------------12-11-----------------------------|-----/12-11~---------||
D|----------10-/12\-----------------------8/10-12-------12~--10~-----------10/12~---|---------------12~---||
A|-------10-------------------------------------------------------------10----------|---------------------||
E|-----------------------7~------7\0~-----------------------------------------------|---------------------||
B|-8~-------------------------------------------------------------------------------|--8------------------||

Vocals enter
C|---------------------------------------|------------------------------------------------------------------||
G|---------------------------------------|------------------------------------------------------------------||
D|---12/14------------14\10~-------------|----------5-5-----------------------------------------------------||
A|---------------------------------------|--------------------------------7~--5~--3~--3-3-------------------||
E|--------------12-------------8~--------|--3---3-3------2---2~---0~----0----------------------3~--3-3--2~--||
B|---------------------------------------|-----------------2------------------------------------------------||


C|-------------------------------------------------------------------|---------------------------------------||
G|-------------------------------------------------------------------|--------------------------7~---7/9\7~--||
D|--12^14--------------14\------------------------------12-14-12~----|------------7\----------7--------------||
A|-----------------------------------------------12^14---------------|------2~--------------5----------------||
E|--------12---12-12~-------8~--8-8~---0~--0---------------------10\-|--3~----------0------------------------||
B|-------------------------------------------------------------------|---------------------------------------||


C|-----------------------------------------------------------------------------------------------------------||
G|---------------------------------9/11\9~--------------------------------------------------------9/11-9-----||
D|-------5~----------------------9-----------------------------------12^14-------14\10-----------9-----------||
A|-----------------------5^7----------------3~------------5/7\5~------------------------------------------5--||
E|--3~--3-----2~----2--------0---------------------3----5------------------12--------(8)------0--------------||
B|----------------2------------------------------------------------------------------------------------------||


C|-----------------------------------------------------||
G|-----------------------------------------------------||
D|-----------------------------------------------------||
A|-------3~--------5----------3--------/10-9-----------||
E|--5~--------3~----------5-------0----------10-8\-----||
B|------------------(3)-----------------------------3~-||


C|------------------------------------------------------------------------------------------------||
G|------------------------------------------------------------------------------------------------||
D|------5~------------------12/14~\----------5~---7^9-7--------------------------------12/14~\10--||
A|-----5-----------------12-----------------5-----------10~-9~-----7----7-9-----------------------||
E|--3~------2~--2---0----------------8---3---------------------------10-----10\0-----12--------(8)||
B|------------------------------------------------------------------------------------------------||


C|---------------------------------------------------------||
G|---------------------------------------------------------||
D|-------------12^14^12~----12/14\12----------10\-----7\---||
A|-------12^14---------------------------------------------||
E|-0--0------------------------------10---8--------5-------||
B|---------------------------------------------------------||


C|-------------------------------------------------------------------------------------------------||
G|------------11^12^11-------------------------------------------------12^11-----------------------||
D|---------------------12~-10~---------------5----------------8/10-12---------12/14-----14\--------||
A|----2~--------------------------2^3^2-----5------/5^7^5------------------------------------------||
E|-3~-----0-------------------------------3------------------------------------------12------8---3-||
B|-------------------------------------------------------------------------------------------------||

Fade out

MOHAA
12-11-2005, 03:01
First of May - BEE GEES

When I was small, and Christmas trees were tall,
we used to love while others used to play.
Don't ask me why, but time has passed us by,
some one else moved in from far away.

(chorus)
Now we are tall, and Christmas trees are small,
and you don't ask the time of day.
But you and I, our love will never die,
but guess we'll cry come first of May.

The apple tree that grew for you and me,
I watched the apples falling one by one.
And I recall the moment of them all,
the day I kissed your cheek and you were mine.

(chorus...)

When I was small, and Christmas trees were tall,
do do do do do do do do do...
Don't ask me why, but time has passed us by,
some one else moved in from far away.

yossie3660
14-11-2005, 10:41
Dah agak jarang dengerin di iPod, dan jadi demen lagi pas dengerin sekarang neh...maklum liburan kemaren ampe bosen kadnag dengerin lagu2 ntu di kuping gue....

Once - Dealova....

yossie3660
15-11-2005, 12:21
buat melepaskan kepusingan....:D

The Electric Joe Satriani II\11. MIND STORM....

bukannya jadi tambah pusing?....:rolleyes:

jef
15-11-2005, 16:23
gw jdi pusing nih mo denger lagu paan yaq sekarang.. :D:D:D

qwert
15-11-2005, 21:22
aku lagi dengerin Purgatory..:)

bennykosasih
15-11-2005, 23:02
Michael Buble - Home
Mantaf bro..!
Co2k utk yang sedang dalam 'perantauan' <maksud gw d luar kota/negeri, pokoknya away from home lah :D >

Warlords
15-11-2005, 23:05
Michael Buble - Home
Mantaf bro..!
Co2k utk yang sedang dalam 'perantauan' <maksud gw d luar kota/negeri, pokoknya away from home lah :D >


kalau gue pas rindu kampung halaman, denger lagu Homeland -nya EUROPE :)

zoda
16-11-2005, 00:50
Moya - God Speed You Black Emperor

yossie3660
16-11-2005, 08:27
Titi Dj - 05.Sempat Melayani Hatimu.....
Bener2 kemayu bener dengernya neh gue......:rolleyes:

jef
16-11-2005, 13:39
:shake::shake::shake:
Tere - PENCURI HATI.mp3
:yeah:

yossie3660
16-11-2005, 14:15
Mantap juga neh...

Joe Satriani Revival LIVE\11.Echo....

:rolleyes: :rolleyes:

dilanjut dengan....

Exists - Kau Akan Pulang...

:rolleyes: :rolleyes:

Warlords
16-11-2005, 20:15
Lynyrd Skynyrd

Free Bird

If I leave here tomorrow
Would you still remember me?
For I must be traveling on, now,
'Cause there's too many places I've got to see.
But, if I stayed here with you, girl,
Things just couldn't be the same.
'Cause I'm as free as a bird now,
And this bird you can not change.
And this bird you can not change.
And this bird you can not change.
Lord knows, I can't change.

Bye, bye, baby its been a sweet love.
Though this feeling I can't change.
But please don't take it so badly,
'Cause Lord knows I'm to blame.
But, if I stayed here with you girl,
Things just couldn't be the same.
Cause I'm as free as a bird now,
And this bird you'll never change.
And this bird you can not change.
And this bird you can not change
Lord knows, I can't change.
Lord help me, I can't chaye-ea-ea-ea-.
Lord, I can't change.
Won't you fly... high...free... bird.. (yeah).

andhee
16-11-2005, 21:53
IRON MAIDEN - THE EVIL THAT MEN DO... again???

Udin Petot
16-11-2005, 22:26
http://img.photobucket.com/albums/v627/Udin/dtit.jpg

Udin Petot
16-11-2005, 22:46
IRON MAIDEN - THE EVIL THAT MEN DO... again???



INTRO
------------------------------------------------------------------5b-3---------------
------------------------------------------------------------3h5p3--------------------
----0---4-2-0-2-4-----0---4-2-0-2-4-------0---4-2-0-2-4-2----------------------------
--2---2-------------2---2-----------2---2---2----------------------------------------
-------------------------------------------------------------------------------------
-------------------------------------------------------------------------------------

-------------------------------------------------------------------------------------
-------------------------------------------------------------------------------------
------0---4-2-0-2-4-------0---4-2-0-2-4-----0---4-2-0-2-4----------------------------
----2---2-----------2---2---2-------------2---2------------2-------------------------
-------------------------------------------------------------------------------------
-------------------------------------------------------------------------------------

Bridge
-------------------------------------------------|| ||
-------------------------------------------------|| ||
-------------------------------------------------|| ||
-9--7--12--9--5--12--5--------5--12--11-12-11--9-||x2||
-7--5--10--7--5--10--3--3--3--3--10--9--10--9--7-|| ||
-------------------------------------------------|| ||

-------------------------------------------------------|| ||
-------------------------------------------------------|| ||
------/7times/------------/3times/---------------------|| ||
----9--------------5--------------------12-11-12-11-9--||x2||
----7--7-7-7---7-7-3-------3-3-3----3-3-10--9-10--9-7--|| ||
-------\_3_/---\_3_/-------\_3_/----\_3__/-------------|| ||

---------------------------------------------------------|| ||
---------------------------------------------------------|| ||
----/3times/------/3times/------/3times/-----------------|| ||
--9-------------5---------/ 3 \--/ 3 \-------------------||x2||
--7--7-7-7--7-7-3--3-3-3--3-3-5----------------------0-2-|| ||
-----\_3_/--\_3_/--\_3_/------3--3-3-3------3-3--2-3-----|| ||

Pre-chorus
-----------------------
-----------------------
------5--4-2-------2---
-5-----------5-4-5-----
-3-------------------3-
-----------------------

--------------------------------------------------------------------------------
--------------------------------------------------------------------0-1-3-5-5b--
-----0---4-2-0-2-4-------0---4-2-0-2-0-------0---4-2-0-2-4------0-2-------------
---2---2-----------2---2---2-----------4---2---2-----------2--------------------
--------------------------------------------------------------------------------
--------------------------------------------------------------------------------

--------------------------------------------------------------------------------
------------------------------------------------------------------------0-1-3---
-----0---4-2-0-2-4-------0---4-2-0-2-0-------0---4-2-0-2-4------0-2-------------
---2---2-----------2---2---2-----------4---2---2-----------2--4-----------------
--------------------------------------------------------------------------------
--------------------------------------------------------------------------------

CHORUS
-------------------------------------|| ||
-------------------------------------|| ||
---/twice /---------/ twice /--|| ||
---9-9-9-9---5--7---9-9-9-9---5--2---||x2||
---7-7-7-7---3--5---7-7-7-7---3--0---|| ||
-------------------------------------|| ||

RIFF 1
----------------------------------|| ||---------------------------------|| ||
----------------------------------|| ||---------------------------------|| ||
--4--/ twice /-4--4--|| ||------/ twice /--9-9---|| ||
--2---2--4h5p4h5p4h5p4-0-2--2--2--||x2||--5---7h9p7h9p7h9p7--4-5---------||x4||
----------------------------------|| ||---------------------------------|| ||
----------------------------------|| ||---------------------------------|| ||

Solo
--14----14-16-17--16-14-12----16-12----12---------------------------------------------
------------------------------------12----12------------------------------------11----
---------------------------------------------11--------------12-11-9-12-11-9-12-------
------------------------------------------------11---12-11-9--------------------------
--------------------------------------------------------------------------------------
--------------------------------------------------------------------------------------

( twice )
-------------12----------------------------12---------------12---------16-16-16--12---
----10----10---------10-9-10---------10-------12------10----------------------------12
-11-----11-------------------9----11----11---------11----11-------9-------------------
--------------------------------------------------------------------------------------
--------------------------------------------------------------------------------------
--------------------------------------------------------------------------------------

--12--11---------------------21--19-17-16-17-16--14-16--14h16p14----------------------
-----------12----12----------------------------------------------14-12-10-------------
--------------11----11----------------------------------------------------13-11-12----
-----------------------11-------------------------------------------------------------
--------------------------------------------------------------------------------------
--------------------------------------------------------------------------------------

Then: Pre-chorus,
Chorus,
Riff 1 (x1),

Udin Petot
16-11-2005, 22:50
Mantap juga neh...

Joe Satriani Revival LIVE\11.Echo....

:rolleyes: :rolleyes:





-||--------------------------|---------------------------|--------------------
-||---11-11-11-11h13---------|----11-11-11-11h13---------|--------------------
-||10----------------10-x-10-|-10----------------10-x-10-|-x-12h13-12-v8-10---
-||--------------------------|---------------------------|--------------------
-||--------------------------|---------------------------|--------------------
-||--------------------------|---------------------------|--------------------


------|------------------------||-------------|-------------------------------
-9----|------------------11----||-------------|----------------16----16-17----
---10-|-x-12h13-12-v8-10----10-||-/8-6-8-6----|----17-17-15-13--b-14--b-------
------|------------------------||----------v8-|-15--b-------------------------
------|------------------------||-------------|-------------------------------
------|------------------------||-------------|-------------------------------


--------------------------------------------------------------------------|---
-15-15h17--15-13-v13-15-v15--13-11-13-13-13--13-11-11-13-v13--11----11/13-|---
--------v------------------------------b--b----------------------10-------|---
--------------------------------------------------------------------------|---
--------------------------------------------------------------------------|---
--------------------------------------------------------------------------|---
guitar solo pm-----

-|-------6h8h9p8p6---------------------------------------------------|--------
-|-6h8h9-----------9p8p6---------------------------------------------|--------
-|-----------------------8p6p5h6h9p6p5---5h6p5---5-------------------|--------
-|-------------------------------------8-------8---8-6-5-/3----------|---3-5--
-|----------------------------------------------------------v4-4p3p1-|-4------
-|-------------------------------------------------------------------|--------
--------- pm----------------------

----------------|-----------------------|-----------------------------------|-
----------------|-----------------------|-----8h9----9p8--------------------|-
----------------|-----------------------|-v10-----v8-----10-----------------|-
-6-6-3-5-1-v3-5-|-5h6h8-8/10\8-6-6h8-v6-|-------------------/10-\8-v6-------|-
----------------|-----------------------|-----------------------------6h8v6-|-
----------------|-----------------------|-----------------------------------|-


-|--------------------------|-------v13p11-8h9h11p9p8p6h8h9p8p6---------------
-|--------------------------|-16-16-----------------------------9p8p6---------
-|-----13-15-13----------13-|-rb--b-----------------------------------8-------
-|-/15-------rb-15p13h15--r-|-------------------------------------------------
-|--------------------------|-------------------------------------------------
-|--------------------------|-------------------------------------------------


------------------------------||---------||-----------------------------------
-6h7p6------------------------||---------||-----------------------------------
-------8p6p5---5h6p5----------||---------||-----------------------------------
-------------8-------8p6p5----||5h6p5p3p-||-----------------------------------
---------------------------v8-||--------6||-------1h3h4p3p1-----------1h3h4h--
------------------------------||---------||-1h3h4-----------4p3p1h3h4---------


------------------------------------------------------------------------------
-------------------------------------------------------4h6h8p6p4-----------4--
-------------------------------------3h5h6p5p3---3h5h6-----------6p5p3h5h6----
-------------------3h5h6p5p3---3h5h6-----------6------------------------------
-3h4h6p4p3---3h4h6-----------6------------------------------------------------
-----------6------------------------------------------------------------------


-----4h6h8p6p4-----------|-------------------|--------------------------------
-6h8-----------8p6p4h6h8-|-18-17-14-------18-|-8p6----------------------------
-------------------------|--b-------17-15--b-|-----8p6------------------------
-------------------------|-------------------|---------8p6-8/10-8-6-5---5-6-8-
-------------------------|-------------------|------------------------8-------
-------------------------|-------------------|--------------------------------
*bend string before picking

-------------------------|----------|-18---21--18-*18p16----16-|-15-13-15-16--
-------------------------|----------|-rb---rb------rb----18--v-|-rb-----------
-------8----8----8p10-10-|----------|---------------------v----|--------------
-/8-10---10---10---------|-/6-8p6---|--------------------------|--------------
-------------------------|--------8-|--------------------------|--------------
-------------------------|--------v-|--------------------------|--------------


-15-13----------------|-------------------------------------|-----------------
-------16-15-13-15-16-|-6h8h9p8p6---------------------------|-----------------
----------------------|-----------6p5h6---------------------|-----------------
----------------------|-----------------10p8h10-8p6h8-6p5---|-----------------
----------------------|-----------------------------------8-|-6h8-8--6h8-8----
----------------------|-----------------------------------v-|-----------------
then play the first part.

-------|----------------------------------------------------------------------
-------|----------------------------------------------------------------------
-------|----------------------------------------------------------------------
-6-5---|----------------------------------------------------------------------
-----8-|----------------------------------------------------------------------
-------|----------------------------------------------------------------------

MOHAA
17-11-2005, 00:11
tadi dengerin lagu2 koes plus, panbers

yossie3660
17-11-2005, 08:25
Akhirnya dapet juga....sekian banyak album dari bang Steve Vai...mantap2....palagi baru kali ini gue dengerin yang versi full-nya....ga sia2 deh penungguan 2 harian...hihi....

G3 - Live in concert\08 Steve Vai - For the love of God....

Pantesan pada protes pas gue tulis yang maennya bang Joe yah...hihi...gahar banged maennya dari tengah sampe akhir....gile....:D

Udin Petot
18-11-2005, 04:11
http://img.photobucket.com/albums/v627/Udin/bobonyuk.jpg

Silvestre
18-11-2005, 07:07
Eisley-One Day I Slowly Floated Away

yossie3660
18-11-2005, 08:54
Beneran ga ada bosennya gue neh....full version ....

G3 - Live in concert\08 Steve Vai - For the love of God....

:D ;) :cool:

jef
18-11-2005, 17:19
koRn - Twisted transistor
:curtsie::curtsie::curtsie:

Erius
18-11-2005, 17:46
http://img493.imageshack.us/img493/3451/gagaga5cp.jpg

pR1-4N
18-11-2005, 18:05
Saat ini gw lagi dengerin opening/ending theme-nya DETECTIVE CONAN taun 2003 Original Music From JAPAN.
Aneh ya...Yg di TV Kita Lagu themanya itu2 aja kagak berubah dari taun semenjak beredar, padahal di Jepang sana tiap 3bln sekali berubah...Knapa ya?:confused:
Anyway, selain itu gw suka musik yg slow tapi dikit rock...:munch1:

andhee
18-11-2005, 19:51
TIC Band - Terbaik Untukmu

Udin Petot
18-11-2005, 21:31
Beneran ga ada bosennya gue neh....full version ....

G3 - Live in concert\08 Steve Vai - For the love of God....

:D ;) :cool:






Play this part
3 times, then play:

e:-------------------------------------------------------------------------|
B:--------------------------15b(17)rb(15)p12---------------15--------------|
G:---------14--14b(16)~~~~--------------------12--14b(16)~~~~~~rb(14)~~~~--|
D:-----12------------------------------------------------------------------|
A:/14----------------------------------------------------------------------|
E:-------------------------------------------------------------------------|


Bend it up here, then pause, then
|| re-bend it here:
\/ \/
e:---------------------------------------------------------------------------|
B:-15b(17)rb(15)p12----------------------------------------------------------|
G:-------------------12--12b(14)---14rb(12)--12~~~~--/12--11--9------/9~~~~--|
D:---------------------------------------------------------------12----------|
A:---------------------------------------------------------------------------|
E:---------------------------------------------------------------------------|

apocalypse12312003
19-11-2005, 01:47
lagi suka lagu2nya malik desential & TTMnya ratu & didadaku ada kamunya ratu juga, n kisah romatisnya glen fredly. bikin g cepet2 pngen merit.. wekekekkek:D

Udin Petot
19-11-2005, 02:00
lagi suka lagu2nya malik desential & TTMnya ratu & didadaku ada kamunya ratu juga, n kisah romatisnya glen fredly. bikin g cepet2 pngen merit.. wekekekkek:D
pengen merit masih ngejar2 ISBO aja, pamalih atu http://www.cheesebuerger.de/images/more/bigs/e058.gif

Warlords
19-11-2005, 04:58
Begadang Rhoma Irama :(

duh sabtu kok kerjaan gak kelar 2 :(

sanrilo
19-11-2005, 14:06
Begadang Rhoma Irama :(

duh sabtu kok kerjaan gak kelar 2 :(

Saya doakan kerjaannya cepat selesai,jadi gak begadang beneran :D

Aku lagi dengar "Kala Sang Surya Tenggelam"nya Chrisye
sambil nunggu waktu pulang kerja.:cool:

dewanggaba
19-11-2005, 14:12
Lagi dengerin lagunya mbak Bungga - Saat Kau Pergi, dah diputer 20 kali neech... Maklum lagu baru, jadi lagi enjoy2nya.

bennykosasih
19-11-2005, 15:11
Darren Hayes - So Beautiful ama lagu2nya White Lion

dewanggaba
19-11-2005, 19:56
Baru beli CD di Disc Tara: DJ RONNIE - Play It Louder. Fave: Radja - Jujur (Mixed)

yossie3660
21-11-2005, 09:48
mantap bener neh dengan alunan yang agak dikit melo.....tapi jadi adem dengernya...;)

Dave Koz - Saxophonic\Again....

yossie3660
22-11-2005, 12:40
Seperti yang sendang gue lakukan saat ini....;)

Padi - 06.Menerobos Gelap.....

agp1012
22-11-2005, 12:48
lagi dengerin "Tombo Ati" nya Opick sambil ngelamun liatin molekul F@H bekerja.. :D

dewanggaba
22-11-2005, 14:50
Baru dapet lagu lama: Underdog Project - Summer Jam

Baltazar
22-11-2005, 15:26
RADIOHEAD (Pablo honey, The bends, OK Computer, My iron Lung, Amnesiac, KID A, Hail to the thief) + secangkir cappucino hangat, sebungkus J***m black, ngadep kompi gw... Aaaahhh.. damainya hiduupp:munch1:

jef
22-11-2005, 15:35
Atreyu - Right_Side_of_the_Bed
:curtsie:

said
22-11-2005, 16:01
Sekarang lagi seneng dengerin
Kupu-kupu malam - PeterPan

enak sih ngedengernya.. musicnya enak..

kalo lagi tiduran enak dengerin..
Alhamdullilah sama Tombo Hati dari Opick

Erius
23-11-2005, 00:45
http://img47.imageshack.us/img47/8707/linkin1yq.gif

Warlords
23-11-2005, 01:16
OST Alexandria

yossie3660
23-11-2005, 08:25
Oke juga....berasa maen gamennya padahal mah cuman dengerin lagunya...:p

Tomb Raider Original Game Rip\01_-_main_theme....

dewanggaba
23-11-2005, 16:19
Lagi dengerin lagunya DJ Ricky - Jing Ai De (Mix)

kruzztee
23-11-2005, 17:05
Susan Wong satu album Close to you

yossie3660
23-11-2005, 17:26
Peterpan - OST Alexandria\Peterpan_09-Di_Belakangku.....

noob-saybot
23-11-2005, 19:10
Vanessa Charlton ( lagi )

sigithw
23-11-2005, 19:21
Stan - Eminem feat dido

dewanggaba
23-11-2005, 19:41
Nyiur Melambai - Ketemu Monyet, lucu banget.

yossie3660
23-11-2005, 19:54
Lagunya nyantai dan ada kesan Jazz tapi gitarnya ga jauh...masih kental dengan ketokcerannya....

Steve Vai - Tender Surrender....;)

Erius
23-11-2005, 22:10
http://img408.imageshack.us/img408/4778/wa2jx.gif kemaren dah 2 screenshot dari WMP 10, sekarang dari Winamp deh biar adil :)

dewanggaba
23-11-2005, 22:32
Kayaknya yossie itu Jazzer Mania yach? Kalo ada festival jazz hadir gak?

livingwater
23-11-2005, 22:47
Colour Everywhere from Christian Bautista

Udin Petot
23-11-2005, 23:59
belom sempet dengerin lagu nih http://www.cheesebuerger.de/images/more/bigs/g065.gif

Nakamura
24-11-2005, 00:57
Smoke Gets In Your Eyes - JULIO IGLESIAS ft. ALL 4 ONE

Udin Petot
24-11-2005, 01:21
again

http://img.photobucket.com/albums/v627/Udin/dtit.jpg

yossie3660
24-11-2005, 08:47
Kalo di salah satu thread pernah gue bahas ttg skin yang gue pake...sekarang screenshotnya sekalian lagu yang lagi gue dengerin....

http://img292.imageshack.us/img292/518/yossie366024nov2005thegun3wg.jpg

to dewanggaba
Gue bukan jazz-i mania kok bro, cuman demen yang enteng2 aja, kalo udah sampe dengan nada2 berat ga masup kuping gue, dan ga sampe liat konser2 gitu kok...hehehe....

dewanggaba
24-11-2005, 09:07
One Hour ago: ClubEighties - Dari Hati
Now: Project Pop - I Will Not Survive
Next Queue:
1. Opick feat. Amanda - Alhamdulliah
2. Underdog Project - Summer Jam (again) "MP3 of the month" in my compie.
3. Bondan Prakoso - "Judul gak tau", yang baru dan sering muncul di MTV, enak banget tuh lagunya.

Ikutan aah, nech hasil modif, skin gue, asli dari http://marcelomuniz.com.br.
http://fileupyours.com/files/3102/capture.JPG
Ada yang pengen?

dewanggaba
24-11-2005, 11:58
Neech ada link skin gue.
http://fileupyours.com/files/3102/PIONNER.wal

yossie3660
24-11-2005, 12:57
Dengan themes yang serba Mac OS dari salah satu Thread dan ganti skin lagi...lebih gahar larasnya....:D so...here it goes....
http://img520.imageshack.us/img520/8895/yossie36602411056fm.jpg

HRazakee
24-11-2005, 20:44
http://images.edans.net/libs/player/dbudja.2000.t.03.jpg (http://play.audiobitrate.com/a.i)

Jadi kangen ama Bali.. ... :D

HRazakee
24-11-2005, 21:33
http://images.edans.net/libs/player/dealova.2005.t.02.jpg (http://play.audiobitrate.com/a.i)

Suara pas-pasan, untung komposisi musiknya lumayan, tapi enak didengar juga nih lagu, lagi teringat seseorang.. ... :rolleyes:

ahmandonk
24-11-2005, 23:20
gw lagi denger lagu yg baru gw download 2 hari yg lalu :)

46. Peterpan - [OST Alexandria #01] Tak Bisakah [3:40]

andhee
25-11-2005, 02:06
http://images.edans.net/libs/player/dealova.2005.t.02.jpg (http://play.audiobitrate.com/a.i)

Suara pas-pasan, untung komposisi musiknya lumayan, tapi enak didengar juga nih lagu, lagi teringat seseorang.. ... :rolleyes:

:iagree:

btw, gue lagi denger Paula Abdul - Rush Rush

You're the whisper of a
Summer breeze
You're the kiss that puts my
Soul at ease
What I'm saying is I'm
In to you
Here's my story and the
Story goes
You give love, you get love
And more than
Heaven knows
You're gonna see
I'm gonna run, I'm gonna try
I'm gonna take this love
Right to ya
All my heart, all the joy
Oh baby, baby please

Chorus:
Rush, rush
Hurry, hurry lover
Come to me
Rush, rush
I wanna see, I wanna see ya
Get free with me
Rush, rush
I can feel it, I can feel you
All through me
Rush, rush
Ooh what you do to me

And all I want from you is
What you are
And even if you're right
Next to me
You're still too far away
If I'm not inside your arms
I get dramatic baby,
Yes I know
But I need you, I want you
Ooh man, I love you so
Ooh, ooh
You're gonna see
I'm gonna run, I'm gonna try
I'm gonna take this love
Right to ya
All my heart, all the joy
Ooh baby, baby please

Chorus

When you kiss me
Up and down
Turn my senses all around
Oh baby, oh baby
I don't know
Just how or why
But no one else
Has touched me
So deep, so deep
So deep inside
You're gonna see
I'm gonna run
I'm gonna try
I'm gonna take this love
Right to ya
All me heart, all the joy
Oh baby baby please

Udin Petot
25-11-2005, 05:02
CELINE DION - My Heart Will Go On



Every night in my dreams

I see you, I feel you

That is how I know you go on

Far across the distance

And spaces Between us

You have come to show you go on

Near, far, wherever you are

I believe that the heart does go on

Once more you open the door

And you're here in my heart and

My heart will go on and on



Love can touch us one time

And last for a lifetime

And never let go 'til we're gone

Love was when I loved you

One true time I hold to

In my life we'll always go on



Near, far, wherever you are

I believe that the heart does go on

Once more you open the door

And you're here in my heart and

My heart will go on and on



You're here, there's nothing I fear

And I know that my heart will go on

We'll stay forever this way

You are safe in my heart and

My heart will go on and on

Udin Petot
25-11-2005, 05:03
HOOBASTANK - The Reason



i'm not a perfect person, there are many things i wish i didn't do

but i continue learning. i never meant to do those things to you

and so i have to say before i go, that i just want you to know

i've found a reason for me, to change who i used to be

a reason to start over new, and the reason is you



i'm sorry that i hurt, its something i must live with everyday

and all the pain i put you through, i wish that i could take it all away

and be the one who catches your tears, thats why i need you to hear



i'm not a perfect person, i never meant to do those things to you

and so i hate to say before i go, that i just want you to know



i've found a reason for me, to change who i used to be

a reason to start over new, and the reason is you

i've found a reason to show a side of me you didn't know

a reason for all that i do, and that reason is you

Udin Petot
25-11-2005, 05:06
http://img.photobucket.com/albums/v627/Udin/Smile/36_1_4.gif http://img.photobucket.com/albums/v627/Udin/Smile/36_1_4.gif jadi teringat mantan gua yg dah pergi ke Surabaya, sekarang dah Married and katanya ankanya mirip gua, padahal gua blm naro saham sama sekali http://img.photobucket.com/albums/v627/Udin/Smile/maluah.gif

Udin Petot
25-11-2005, 05:18
CHANTAL KREVIAZUK - Leaving On A Jet Plane



ooh

all my bags are packed down

i'm ready to go

i'm standing here

outside your door

i hate to wake you up to say good bye

but the dawn is breaking

its early morn

the taxi is waiting

he's blowing his horn

already i'm so lonesome i could die



*CHORUS

So kiss me and smile for me

tell me that you'll wait for me

hold me like you'll never let me go

'cause i'm leaving on a jet plane

I don't know when i'll be back again

oh babe, i hate to go*



there's so many times I've let you down

so many times I've played around

i tell you now they don't mean a thing

every place i go i think of you

every song i sing i sing for you

when i come back

i'll wear your wedding ring



*CHORUS*



and now the time has come to leave you

one more time

oh let me kiss you

then close your eyes

and i'll be on my way

dream about the days to come

when i won't have to leave alone

about the times when i won't have to say...



*CHORUS*



i'm leaving on a jet plane

don't know when i'll be back again

oh babe, i hate to go



i'm leaving on a jet plane

leaving on a jet plane x 9 sampe capek

Udin Petot
25-11-2005, 05:20
RICHARD MARX - Right Here Waiting



Oceans apart day after day and I slowly go insane

I hear your voice on the line

But it doesn't stop the pain

If I see you next to never, how can we say forever



#Wherever you go, whatever you do

I will be right here waiting for you

Whatever it takes or how my heart breaks

I will be right here waiting for you

I took for granted, all the times

That I though would last somehow

I hear the laughter, I taste the tears

But I can't get near you now

Oh, can't you see it baby, you've got me goin' crazy

#Wherever you...





I wonder how we can survive this romance

But in the end if I'm with you

I'll take the chance

Oh, can't you see it baby

You've got me goin' crazy

#Wherever you...

Udin Petot
25-11-2005, 05:27
AIR SUPPLY - I Can Wait Forever



When you say I miss the things you do,

I just wanna get back close again to you.

But for now your voice is near enough.

How I miss you, and I miss you love.

And though all the days that pass me by so slow,

all the emptiness inside me flows all around,

and there's no way out.

I'm just thinkin' so much of you.

There was never any doubt.

chorus



I can wait forever if you say you'll be there too.

I can wait forever if you will.

I know it's worth it all to spend my life alone with you.



When it looked as though my life was wrong,

You took my love and gave it somewhere to belong.

I'll be here when hope is out of sight.

I just wish that I was next to you tonight.

And oh, I'll be reaching for you even though

You'll be somewhere else, my love.

We'll go like a bird on its way back home.

I could never let you go.

And I just want you to know...



chorus



Where are you now,

along with the thoughts we share?

Keep them strong somehow.

And you know I'll always be there.



chorus repeat and fade

yossie3660
25-11-2005, 08:30
http://img328.imageshack.us/img328/6876/yossie3660tdaod2511056cu.jpg

yossie3660
25-11-2005, 21:13
http://img509.imageshack.us/img509/5530/yossie3660mk2511059pv.jpg

HRazakee
25-11-2005, 21:44
http://images.edans.net/libs/player/rif.2004.t.09.jpg (http://play.audiobitrate.com/a.i)

Satu-satunya lagu yang lumayan romantis dari sebuah band gahar seperti rif.. ... :D

Radeonator
25-11-2005, 23:00
Mudvayne-World so cold toast untuk sebuah dunia yang sudah hancur. :D

http://img32.imageshack.us/img32/9915/playlist0qe.th.jpg (http://img32.imageshack.us/my.php?image=playlist0qe.jpg)


"World So Cold"

When passion's lost and all the trust is gone,
Way too far, for way too long
Children crying, cast out and neglected,
Only in a world so cold, only in a world
This cold
Hold the hand of your best friend, look into their eyes
Then watch them drift away
Some might say, we've done the wrong things,
For way too long, for way too long

Fever inside the storm,
So I'm turning away.
Away from the name
(Calling your names)
Away from the stones
(Throw sticks and stones)
'Cause I'm through mending the wounds of us

Keep your thorns
'Cause I'm running away,
Away from the games
(******* head games)
Away from the space
(Hate this head space)
The circumstances of a world so cold

burning whispers, Remind me of the days,
I was left alone, in a world this cold
Guilty of the same things, provoked by
The cause,
I've left alone, in a world so cold
Fever inside the storm,
So I'm turning away.
Away from the name
(Calling your names)
Away from the stones
(Throw sticks and stones)
'Cause I'm through mending the wounds of us

Keep your thorns
'Cause I'm running away,
Away from the games
(******* head games)
Away from the space
(Hate this head space)
The circumstances of a world so cold

I'm flying, I'm flying away,
Away from the names
(Calling your names)
Away from the games
(******* head games)
The circumstances of a world so cold

Why does everyone feel like my enemy,
Don't want any part of depression or
Darkness, I've had enough
sick and tired, bring the sun, or I'm gone,
Or I'm gone

I'm backing out, I'm no pawn,
No mother-******* slave to this,
Never lied
Never left
Never lived
Never loved
Never lost
Never hurt
Never worry about being me, or anyone else
Not a care, no concern, don't give a **** about
Anything

Backing out, giving up, no mother-*******
Slave to this,
Never lied
Never left
Never lived
Never loved
Never lost
Never hurt
Never worry about being me, or anyone else
Not a care, no concern, don't give a **** about
Anything,

I need to find a darkened corner,
A lightless corner,
Where it's safer and calmer,

I'm turning away.
Away from the name
(Calling your names)
Away from the stones
(Throw sticks and stones)
'Cause I'm through mending the wounds of us

I'm running away,
Away from the games
(******* head games)
Away from the space
(Hate this head space)
The circumstances of a world so cold

I'm flying, I'm flying away,
Away from the names
(Calling your names)
Away from the games
(******* head games)
The circumstances of a world so cold

Erius
25-11-2005, 23:02
http://img354.imageshack.us/img354/6462/was4ct.gif

Udin Petot
26-11-2005, 01:40
PADI - Begitu Indah

Intro : F Dm (3x)

F

Bila cinta... menggugah rasa

Dm

Begitu indah... mengukir hatiku

Bb

Menyentuh jiwaku...

F Dm

Hapuskan semua gelisah

F

Duhai cintaku... duhai pujaanku

Dm

Datang padaku... dekat disampingku

Bb F

Ku ingin hidupku selalu dalam peluknya

Reff :

C Bb

Terang saja... aku menantinya

C Bb

Terang saja... aku mendambanya

C Bb

Terang saja... aku merindunya

C Bb F

Karena LELY... karena LELY... begitu indah

Int : F Dm (2x)

F

Duhai cintaku... pujaan hatiku

Bb

Peluk diriku... dekaplah jiwaku

Bb

Bawa ragaku melayang

F

Memeluk bintang

Back to Reff :

F

Na... na... na... na...

Dm

Na... na... na... na...

F

Na... na... na... na...

Dm

Na... na... na... na...

Back to Reff :

Dm F Dm

Begitu indah... begitu indah... begitu indah...

F

Oh... ho... oh... ho...

Dm

Oh... ho... oh... ho...

F

Oh... ho... oh... ho...

Dm

Oh... ho... oh... ho...

F

Oh... ho... oh... ho...

Dm

Oh... ho... oh... ho...

F

Oh... ho... oh... ho...

DM

Oh... ho... oh... ho...

F

Begitu... begitu indah

Udin Petot
26-11-2005, 01:43
PADI - Mahalely


Intro : Am G F G Am G F (2x)

C F

Hamparan langit maha sempurna

Am G

Bertahta bintang - bintang angkasa

C F

Namun satu bintang yang berpijar

Am G

Teruntai turun menyapa aku

Reff 1 :

C F

Ada tutur kata terucap

Am G

Ada damai yang kurasakan

C F

Bila sinarnya sentuh wajahku

Am G F

Kepedihanku pun... terhapuskan

Intro : Am G F G Am G F (2x)

C F

Alam rayapun semua tersenyum

Am G

Merunduk dan memuja hadirnya

C F

Terpukau aku menatap wajahnya

Am G

Aku merasa mengenal dia...

Reff 2 :

C F

Tapi ada entah dimana

Am G

Hanya hatiku mampu menjawabnya

C F

MahaLELY resapkan nilainya

Am G F AM

Pencarianku pun... usai sudah

Int : F Am F F G

Back to Reff :

C F

MahaLELY resapkan nilainya

Am G

MahaLELY tercipta untukku

C F

MahaLELY resapkan nilainya

Am G

MahaLELY tercipta untukku

Warlords
26-11-2005, 03:54
Teman Tapi Mesra --- RATU

versi rekaman live ultah TV 7 :D

Udin Petot
26-11-2005, 04:46
ROXETTE - Listen To Your Heart

I know there,s something in the wake of your smile.

I get a notion from the look in your eyes, yea.

You've built a love but that love falls apart.

Your little piece of heaven turns too dark

Chorus:

Listen to your heart when he's calling for you.

Listen to your heart there's nothing else you can do.

I don't know where you're going

and I don't know why,

but listen to your heart before you tell him goodbye



Sometimes you wonder if this fight is worthwhile.

The precious moments are all lost in the tide, yea.

They're swept away and nothing is what it seems,

the feeling of belonging to your dreams



chorus



And there are voices that want to be heard.

So much to mention but you can't find the words.

The scent of magic, the beauty that's been when love was wilder than the wind.

Udin Petot
26-11-2005, 05:39
PHIL COLLINS - Against All Odds

How can I just let you walk away?

Just let you leave without a trace?

When I stand here taking every breath with you, ohoo

You're the only one who really knew me at all

How can you just walk away from me?

When all I can do is watch you leave?

Cuz we shared the laughter and the pain

and even shared the tears

You're the only one who really knew me at all

Chorus:

So take a look at me now

Cause there's just an empty space

And there's nothin left here to remind me

Just the memory of your face

Take a look at me now

Cuz there's just an empty space

And you comin back to me is against the odds

and that's what I've gotta face.



I wish I could just make you turn around

Turn around and see me cry

There's so much I need to say to you,

So many reasons why

You're the only one who really knew me at all



Chorus

So take a look at me now

cuz there's just an empty space

And there's nothin left here to remind me

just the memory of your face

Take a look at me now

Cus there's just an empty space

But to wait for you, is all I can do

and that's what I gotta face



Take a good look at me now

I'll still be standing there

And you comming back to me is against all odds

It's the chance i gotta take



End

Just take a look at me now

Udin Petot
26-11-2005, 05:54
AIR SUPPLY - Making Love Out Of Nothing At All

know just how to whisper

And I know just how to cry

I know just where to find the answers

And I know just how to lie

I know just how to fake it

And I know just how to scheme

I know just when to face the truth

And then I know just when to dream



And I know just where to touch you

I know just what to prove

I know when to pull you closer

And I know when to let you loose



And I know the night is fading

And I know the time's gonna fly

And I'm never gonna tell you everything I gotta tell you

But I know I gotta give it a try



And I know the roads to riches

And I know the ways to fame

I know all the rules and then I know how to break 'em

And I always know the name of the game



But I don't know how to leave you

And I'll never let you fall

And I don't know how you do it

Making love out nothing at all



(Making love) out of nothing at all

(Making love) out of nothing at all

(Making love)

Out of nothing at all

(Making love) out of nothing at all

(Making love) out of nothing at all

(Making love) out of nothing at all



Every time I see you all the rays of the sun are all

Streaming through the waves in your hair

And every star in the sky is taking aim at your eyes

Like a spotlight



The beating of my heart is a drum and it's lost

And it's looking for a rhythm like you

You can take the darkness from the pit of the night

And turn it to a beacon burning endlessly bright



I've gotta follow it 'cause everything I know

Well it's nothing till I give it to you



I can make the runner stumble

I can make the final block

And I can make every tackle at the sound of the whistle,

I can make all the stadiums rock



I can make tonight forever

Or I can make it disappear by the dawn

And I can make you every promise that has ever been made

And I can make all your demons be gone



But I'm never gonna make it without you

Do you really wanna see me crawl

And I'm never gonna make it like you do

Making love out of nothing at all



(Making love) out of nothing at all

(Making love) out of nothing at all

(Making love)

Out of nothing at all

(Making love) out of nothing at all

(Making love) out of nothing at all

(Making love, love)



Out of nothing at all (Making love)

Out of nothing at all (Making love)

Out of nothing at all (Making love, love)



Out of nothing at all (Making love)

Out of nothing at all (Making love)

Out of nothing at all (Making love, love, love)

yossie3660
26-11-2005, 15:20
Lagunya ngejazz dan ngedungdung...padahal hantaman cuman pake Simbada doang, tapi oleh lah buat kuping kaleng macem gue mah....hehehe..;)

Dave Koz - Saxophonic\Saxophonic (Cone On Up)...

Erius
26-11-2005, 19:32
PADI - Mahalely


:w00t: :eek: :eek:

http://img474.imageshack.us/img474/831/grenday5tc.gif

Koleksi laguku sedikit banget... :( :(

dewanggaba
26-11-2005, 19:38
@Erius,
penggemar anime juga yach, Hitomi - I Am

Still listening the best: Bondan Prakoso - Bunga

Erius
26-11-2005, 19:48
@Erius,
penggemar anime juga yach, Hitomi - I Am

yah, lumayan.. beberapa koleksi lagu anime ada.. tapi tetep dikit banget.
saya suka nonton+dengerin lagu anime tapi ga gitu tau banyak tentang anime itu sendiri. tiap hari cuma nonton animax di rumah :D

dewanggaba
26-11-2005, 19:53
KungPaw - Lagi Gituan
Lucu banget lagunya. hahahahahahaha. Mpe ga bisa nahan.
Da nyang pernah denger belum?

bennykosasih
26-11-2005, 22:06
lagi seneng dengerin Motley Crue Feat. Chester Bennington - Home Sweet Home enak banget

taufik_mnsr
27-11-2005, 02:08
KungPaw - Lagi Gituan
Lucu banget lagunya. hahahahahahaha. Mpe ga bisa nahan.
Da nyang pernah denger belum?

Ia tuch lagu, sumpah kocak abiss!!!
Video Klipnya ada nggak ya? Kalo ada pasti tambah seru tuch...:D

Erius
27-11-2005, 21:00
http://img509.imageshack.us/img509/345/panjang4dc.gif

amders
27-11-2005, 23:36
Hoobastank - Remember Me

HRazakee
27-11-2005, 23:50
http://images.edans.net/libs/player/pcetera.1997.t.09.jpg (http://play.audiobitrate.com/a.i)

Lagunya lumayan klasik, tapi masih enak didengar.. ... :D

Udin Petot
28-11-2005, 00:29
WHITE LION - You're All I Need

I know that she's waiting

For me to say forever

I know that I sometimes

Just don¹t know how to tell her

I want to hold and kiss her

Give her my love

Make her believe

'Cause she doesn't know

She doesn't know

You're all I need beside me girl

You're all I need to turn my world

You're all I want inside my heart

You're all I need when we're apart



I know that she's always

There when I need her loving

I know that I've never

Told her how much I love her

I see her face before me

I look in her eyes

Wondering why

She doesn't know

She doesn't know

She doesn't know



You're all I need beside me girl

You're all I need to turn my world

You're all I want inside my heart

You're all I need when we're apart



Say, say that you¹ll be there

Whenever I reach out

To feel your hand in mine

Stay, stay within my heart

Whenever I'm alone

I'll know that you are there



You're all I need beside me girl

You're all I need to turn my world

You're all I want inside my heart

You're all I need when we¹re apart

You're all I need

All that I need

Is for you to believe

All that I need

Is LELY

Udin Petot
28-11-2005, 02:37
AEROSMITH - I Don't Want To Miss A Thing


I could stay awake just to hear you breathing

Watch you smile while you are sleeping

While you're far away dreaming

I could spend my life in this sweet surrender

I could stay lost in this moment forever

Every moment spent with you is a moment I treasure

Don't want to close my eyes

I don't want to fall asleep

Cause I'd miss you baby

And I don't want to miss a thing

Cause even when I dream of you

The sweetest dream will never do

I'd still miss you baby

And I don't want to miss a thing



Lying close to you feeling your heart beating

And I'm wondering what you're dreaming

Wondering if it's me you're seeing

Then I kiss your eyes

And thank God we're together

I just want to stay with you in this moment forever

Forever and ever



Don't want to close my eyes

I don't want to fall asleep

Cause I'd miss you baby

And I don't want to miss a thing

Cause even when I dream of you

The sweetest dream will never do

I'd still miss you baby

And I don't want to miss a thing



I don't want to miss one smile

I don't want to miss one kiss

I just want to be with you

Right here with you, just like this

I just want to hold you close

Feel your heart so close to mine

And just stay here in this moment

For all the rest of time



Don't want to close my eyes

I don't want to fall asleep

Cause I'd miss you baby

And I don't want to miss a thing

Cause even when I dream of you

The sweetest dream will never do

I'd still miss you baby

And I don't want to miss a thing



Don't want to close my eyes

I don't want to fall asleep

I don't want to miss a thing

yossie3660
28-11-2005, 09:39
temporary skin dulu deh....ga gitu demen....ga macho...:D :p

http://img254.imageshack.us/img254/5130/yossie3660jennifer28nov059vx.jpg

dark_blade
28-11-2005, 17:59
KungPaw - Lagi Gituan
Lucu banget lagunya. hahahahahahaha. Mpe ga bisa nahan.
Da nyang pernah denger belum?
Huehuehue... Itu lagu emang kocak banget deh... Ketawa2 gw dengernya...

yossie3660
28-11-2005, 19:23
Biarpun banyak skin yang gue punya, tetep aja demen yang standard2 aja...ga neko2... beginilah skin langganan aku....;)

http://img345.imageshack.us/img345/8915/yossie3660mlm28nov20051wg.jpg

dewanggaba
28-11-2005, 19:29
Lagi dengerin lagunya Bondan Prakoso - Bunga, kayaknya neech lagu enak banget dech, ada yang pernah denger gak?

Dengerin lewat MP3 Player, dan pake' earphone, enak banget gak terlalu jduk2, tapi kalo dah di speaker kompie lebih dahsyat lagi man...

Udin Petot
29-11-2005, 05:14
AIR SUPPLY - Making Love Out Of Nothing At All

I know just how to whisper

And I know just how to cry

I know just where to find the answers

And I know just how to lie

I know just how to fake it

And I know just how to scheme

I know just when to face the truth

And then I know just when to dream



And I know just where to touch you

I know just what to prove

I know when to pull you closer

And I know when to let you loose



And I know the night is fading

And I know the time's gonna fly

And I'm never gonna tell you everything I gotta tell you

But I know I gotta give it a try



And I know the roads to riches

And I know the ways to fame

I know all the rules and then I know how to break 'em

And I always know the name of the game



But I don't know how to leave you

And I'll never let you fall

And I don't know how you do it

Making love out nothing at all



(Making love) out of nothing at all

(Making love) out of nothing at all

(Making love)

Out of nothing at all

(Making love) out of nothing at all

(Making love) out of nothing at all

(Making love) out of nothing at all



Every time I see you all the rays of the sun are all

Streaming through the waves in your hair

And every star in the sky is taking aim at your eyes

Like a spotlight



The beating of my heart is a drum and it's lost

And it's looking for a rhythm like you

You can take the darkness from the pit of the night

And turn it to a beacon burning endlessly bright



I've gotta follow it 'cause everything I know

Well it's nothing till I give it to you



I can make the runner stumble

I can make the final block

And I can make every tackle at the sound of the whistle,

I can make all the stadiums rock



I can make tonight forever

Or I can make it disappear by the dawn

And I can make you every promise that has ever been made

And I can make all your demons be gone



But I'm never gonna make it without you

Do you really wanna see me crawl

And I'm never gonna make it like you do

Making love out of nothing at all



(Making love) out of nothing at all

(Making love) out of nothing at all

(Making love)

Out of nothing at all

(Making love) out of nothing at all

(Making love) out of nothing at all

(Making love, love)



Out of nothing at all (Making love)

Out of nothing at all (Making love)

Out of nothing at all (Making love, love)



Out of nothing at all (Making love)

Out of nothing at all (Making love)

Out of nothing at all (Making love, love, love)

Udin Petot
29-11-2005, 05:17
ROXETTE - June Afternoon

Didn't I tell you everything is possible in this deja vu?

Try the river boat, the carousel, feed the pigeons, Bar-B-Q

Look at all the people, happy faces all around.

Smiling, throwing kisses, busy making lazy sounds.

It's a bright June afternoon, it never gets dark.

Wah-wah! Here come the sun

Get your green green tambourine, let's play in the park.

Wah-wah! Here comes the sun



Some folks are on blankets, slowly daydreaming and reaching for their food

Let's go buy an ice-cream and a magazine with an attitude and put on a
cassette,

we can pretend that you're a star cos life's so very simple just like
la-la-la



It's a bright June afternoon, it never gets dark.

Wah-wah! Here come the sun

Get your green green tambourine, let's play in the park.

Wah-wah! Here comes the sun



There's a painter painting his masterpiece

There are some squirrels jumping in the trees.

There's a wide-eyed boy with a red balloon.

All my life I've longed for this afternoon.



It's a bright June afternoon, it never gets dark.

Wah-wah! Here come the sun

Get your green green tambourine, let's play in the park.

Wah-wah! Here comes the sun

Udin Petot
29-11-2005, 05:23
STEELHEART - She's Gone

She's gone,

Out of my life.

I was wrong,

I'm to blame,

I was so untrue.

I can't live without her love.

In my life

There's just an empty space.

All my dreams are lost,

I'm wasting away.

Forgive me, girl.



(Chorus)



LELY, won't you save me?

My heart belongs to you.

LELY, can you forgive me?

For all I've done to you.

LELY, oh, LELY.



She's gone,

Out of my life.

Oh, she's gone.

I find it so hard to go on.

I really miss that girl, my love.



Come back into my arms.

I'm so alone,

I'm begging you,

I'm down on my knees.

Forgive me, girl.



(Chorus x2)



LELY, oh, LELY.

My heart belongs to you.

LELY, can you forgive me?

For all I've done to you.

yossie3660
29-11-2005, 09:35
For Someone out there....

http://img211.imageshack.us/img211/6335/yossie3660pagi29nov052up.jpg

Mencintaimu - Kris Dayanti

Mencintai mu
Seumur hidup ku
Selamanya
Setia menanti

Walau di hati saja
Seluruh hidup ku
Selamanya
Kau tetap milik ku

( reff )
Hanya satu yang tak mungkin kembali
Hanya satu yang tak pernah terjadi
Segalanya teramat berarti di hati ku
Selamanya...

Mencintai mu
Seumur hidup ku
Selamanya
Kau tetap milik ku

( back to reff 2X )
( back to reff 3X )

Mencintai mu
Seumur hidup ku
Selamanya
Setia menanti

Walau di hati saja
Seluruh hidup ku
Selamanya
Kau tetap milik ku

( reff )
Hanya satu yang tak mungkin kembali
Hanya satu yang tak pernah terjadi
Segalanya teramat berarti di hati ku
Selamanya...

Mencintai mu
Seumur hidup ku
Selamanya
Kau tetap milik ku

( back to reff 2X )
( back to reff 3X )
-----

Love You Always....
yossie3660

Wa-1
29-11-2005, 09:58
Biarpun banyak skin yang gue punya, tetep aja demen yang standard2 aja...ga neko2... beginilah skin langganan aku....;)

http://img345.imageshack.us/img345/8915/yossie3660mlm28nov20051wg.jpg

Hahahaha......Ternyata penggemar lagu tetangga toh.:D :D
Kalo gw demen yang Mencari Alasan.:D :D

jef
29-11-2005, 15:21
TANAGRA (http://myspace.com/tanagra) - Ser --- :D:D:D *THANX, to bro Yossie... buat tutorial HTMLnya :D*

yossie3660
29-11-2005, 19:11
Hari ini gue kemayu abis lagu2nya.....tapi tetep buat someone out there....

http://img503.imageshack.us/img503/432/yossie3660malam29nov054am.jpg

to bro jef
sama2 bro buat tutorialnya...gue seneng kalo bantuan gue bisa menyemarakkan forum ini dan member2nya...juga ingin selalu temen2 ikutan pinter...;) tapi bukan berarti gue pinter loh, cuman sekedar bisa aja gue mah oke?...;)

to bro Wa-1
beneran bro, gue ga tau gimana bisa demen lagu sebrang itu...gara2 di kuliah pernah ikutan karaoke dan lagu2nya oke brat, jangan salah lho bahwa negeri sebrang itu vokalnya tinggi2 juga, gue nyanyi Mencari Alasan bisa sampe serak2...hahaha..tapi seru lah, banyak beberapa koleksi gue, walaupun banyak juga yang mencibir gue nyanyi itu pas di karaokean...hahaha..tapi kalo dihayati lagu2 negri sebrang itu pas banget ama suasana hati gue, bukan berarti negeri sendiri ga bagus loh..tergantung momentnya bro...;)

Udin Petot
30-11-2005, 03:37
JOSH GROBAN - You Raise Me Up

When I am down, and oh my soul so weary

When troubles come, and my heart burdened be

Then I am still and wait here in the silence

Until you come and sit awhile with me.

You raise me up so I can stand on mountains.

You raise me up to walk on stormy seas.

I am strong when I am on your shoulders.

You raise me up to more than I can be.



You raise me up so I can stand on mountains.

You raise me up to walk on stormy seas.

I am strong when I am on your shoulders.

You raise me up to more than I can be.



(enter choir in background)



You raise me up so I can stand on mountains.

You raise me up to walk on stormy seas.

I am strong when I am on your shoulders.

You raise me up to more than I can be.



You raise me up so I can stand on mountains!

You raise me up to walk on stormy seas!

I am strong when I am on your shoulders.

You raise me up to more than I can be.



You raise me up to more than I can be.

dark_blade
30-11-2005, 09:05
Buat yang penasaran sama Lagu Gituan, kayak gini neeh liriknya....

KUNGPOW CHICKEN - Lagu Gituan
reff: udah gak kuat nahan
pengen gitu-gituan
ayo cepat masukan
tapi pake pengaman

semenjak dulu hingga sekarang ini
udah banyak kerjaan yg pernah kualami
dari cleaning service, jadi waiter, jadi kernet
jadi brengsek krn dari kecil sudah mengenal seks

tubuh terdidik dari bacaan-bacaan yg vulgar
dari lipstik dan eksotika sambil ngumpet di kamar
ortu sempat negur karena bicaraku kotor
gara-gara ku bertanya "Pak, apakah itu vibrator?"

pernah waktu sma ketika masih muda
rasa penasaran ingin bertanya-tanya
apa tuh mr happy, apa tuh miss cherful
yg jelas kedua-duanya kalo ketemu, be careful

pernah ketahuan waktu nonton film gituan
kegep waktu ngebokep di rumah sendirian
tak kuat nahan … waktu rombongan satu adegan
maenin si joni sampe keluar krn …

tak heran kalo anak umur belasan udah pernah gituan
berawal dari pegangan, ciuman, sampe pelukan
gmn caranya kuingin merasakan
tontonlah film virgin sbg panduan

mengenal wanita waktu smp kelas dua
hilang keperjakaan sma kelas tiga
waktu sd pipis gak pernah lurus
sekarang kuliah gak lulus

gimana mungkin bisa berkonsentrasi
antara belajar dan cewek di kelas yg seksi-seksi
seragam rok pendek 15 senti di atas lutut
hati berdebar yg bawah pun ikut

kadang semua itu hanya sebagai godaan
jangan coba sendirian kalo kesepian
jauhkan sabun dingin biar gak ketagihan
sediakan kondom kalo kamu mau gituan

repeat reff [2x]

ha ha, ini first 3, siap menjadi gila
seiring ku bertanya soal payudara
huhui, katanya yg kiri dan kanan itu berbeda ya
aku sih gak percaya, coba sini kuraba

semua kalo udah maen di tempat kos-kos-an
tempat yg cocok kalo kamu mau gituan
kalo balik dugem mau check-in kemahalan
karena lagi mabok lupa pake pengaman

kalo mau gituan harus pemanasan
sambil berciuman raba kiri raba kanan
eh iya ya, kok yg kiri dan kanan berbeda ya
aku pun semakin gila
horny sampe ubun-ubun kepala

siapapun bisa bebas masuk ke kamar kos-kos-an
pacarnya, selingkuhannya, bos-bos-nya, gadung-gadungnya
semuanya akan baik-baik saja
asal telentang dengan pasrah
dan jangan lupa mempersiapkan tisu basah

Sama sekarang seeh gw lagi dengerin Fort Minor - Believe Me...

FORT MINOR - Believe Me
I guess
That this is where we've come to
If you don't want to
Then you don't have to
Believe me

But I
Won't be there when you go down
Just so you know now
You're on your own now
Believe me

Yo
I don't wanna be the one to blame you
Like fun and games
Keep playin' 'em
I'm just sayin-
Think back then
We was like one in the same
On the right track
But I was on the wrong train
It's like that
Now you gotta face the pain
And the devil's got a fresh new place to play
In your brain
Like a maze
You can never escape
The rain
Every damn day's the same shade of grey

Hey
I used to have a little bit of a plan
Use ta'
Have a concept of where I stand
But that concept slipped right outta my hand
And now
I don't really even know who I am
Yo
What do I have to say
Maybe I should do
What I have to do to break free
'N whatever happens to you
We'll see
But it's not gonna happen with me

I guess
That this is where we've come to
If you don't want to
Then you don't have to
Believe me

But I
Won't be there when you go down
Just so you know now
You're on your own now
Believe me

Back then
I thought you were just like me
Somebody who could see all the pain I see
But you
Proved to me unintentionally
That you would self destruct eventually
Now I'm thinkin' like the mistake I made doesn't hurt
But its not gonna work
'Cause it's really much worse
Than I thought
I wished you were something you were not
And now this guilt is really all that I got

You turn your back
And walk away in shame
All you got
Is a memory 'a pain
Nothin' makes sense
You jus' stare at the ground
I hear my voice in your head
When no one else is around
So what do I have to say
Maybe I should do
What I have to do
To break free
Man
'N whatever happens to you
We'll see
But it's not gonna happen with me

I guess
That this is where we've come to
If you don't want to
Then you don't have to
Believe me

But I
Won't be there when you go down
Just so you know now
You're on your own now
Believe me

Yeah!

I guess
That this is where we've come to
If you don't want to
Then you don't have to
Believe me

But I
Won't be there when you go down
Just so you know now
You're on your own now
Believe me

I will do what I have to do
You're on your own now
Believe me
Whatever happens to you
You're on your own now
Believe me
What do I have to say
You're on your own now
Believe me
Its not gonna happen to me
You're on your own now
Believe me

Yeah!

Wow! Mike Shinoda (Linkin Park) keren banget tuh di video klip-nya.... Lagunya seeh mantap abiezz...

machete™
30-11-2005, 15:59
Artist: Hitomi
Title: Open Mind

Hikaridasu asu wo se ni uke
kitto tsunagaridasu yume wo miteru
Ima wo shinjiteku tame ni bokura wa
nanika wo sagashite miyou yo
Mada kotae no nai meiro no naka de
sugu ni unazuku KOTO wo osoreteru
Hajimete mitagatteta
mirai wo miushinawanai tame ni NE

Dare no sei ni shite jibun no sei datte
Mainichi wo ikitemo
Katakuna ni natte kokoro katakute
Mamoru mono nante kitto nai kedo

Nee MAJI ni natteku kitto bokura wa jiyuu ni nareru
Yes demo NE dokka ni manzoku shite
Itsumo doori NE dakara kitto NE OPEN MIND

Sono hitomi ni utsuru RIARU
mata dareka no me wo ki ni shisugiteru
Jibun no naka dake ni ARU mono wa
kitto utsukushii HAZU da yo

Dare datte NE genjitsu bakari ja
Oshitsubusarete shimau yo
Yume ja nakunatte yaritai koto
Sagashidaseru dakara aruitekou yo

Nee MAJI ni natteku motto bokura wa jiyuu ni nareru
Yes mata NE dokka de tsumazuite NE
Daiji na KOTO wakaru ima nara OPEN MIND

Nee MAJI ni natteku motto bokura wa jiyuu ni nareru
Yes demo NE dokka ni manzoku shite
Itsumo doori NE dakara kitto NE OPEN MIND

Doko ni iku to iu no kimi ni ima wa yudanete miyou
Kaze wo motto kanjite toki wo wasure
Donna guuzen mo ukeiretai Yeah
Unmei nara shinjite soshite OPEN MIND

Fulvian
30-11-2005, 16:10
:nana: Cari sendiri lirik lagunya:

dewanggaba
30-11-2005, 19:19
Thanks Dark Blade, btw kalo dah ada yang dengerin lagunya pasti ketawa dech. yakinlah.sumpah.samber petir bareng2 mau kok. hahahaha

Udin Petot
01-12-2005, 01:31
EUROPE - Lelly

When lights go down, I see no reason

For you to cry. We've been through this before

In every time, in every season,

God knows I've tried

So please don't ask for more.

Can't you see it in my eyes

This might be our last goodbye



LELY, LELY, things they change my friend

LELY, LELY, maybe we'll meet again somewhere again



I read your mind, with no intentions

Of being unkind, I wish I could explain

It all takes time, a whole lot of patience

If it's a crime, how come I feel no pain.



Can't you see it in my eyes

This might be our last goodbye



LELY, LELY, things they change my friend

LELY, LELY, maybe we'll meet again



Can't you see it in my eyes

This might be our last goodbye



LELY, LELY, things they change

LELY, LELY, LELY

LELY, LELY, maybe we'll meet again somewhere again



When lights go down

Erius
01-12-2005, 01:40
Bunga
Saat Kau Pergi
OST Dealova

dark_blade
01-12-2005, 13:59
Lagi demen dengerin Bon Jovi neeh...
- Have A Nice Day
- Complicated
- Story of My Life

Wa-1
01-12-2005, 14:06
Sudah seminggu nggak dengerin lagu.....
Kemaren di Disc Tarra dengerin lagunya Bon Jovi yang baru, nggak tau judulnya, tapi bagus juga, sampe diulang dua kali.:D

yossie3660
01-12-2005, 16:36
Gile....ga terasa musim dingin dah menjelang dan suasana "natal" mulai gue rasakan...palagi dapet 1 cd audio dari temen yang menta dirippingin, sayang ga ada judulnya...oke2 juga neh lagunya....wah2...gue berasa banyak dosa kalo dah mau natalan....palagi jarang absen panggil...wuih2...saatnya menebar kebaikan yang lebih banyak lagi neh...:)

donnietri
01-12-2005, 17:04
Wah si Udin ganti2 lyric...melanggar hak cipta tuh...Carey jadi Lely..ck..ck...

Gw lagi dengerin lagunya Tompi,selalu denganmu dsb...satu album enak2...

Wa-1
02-12-2005, 07:50
Lagi demen dengerin lagu2 lama. Nostalgia.
Gregorian - Once in A Lifetime.
Search - Isabella.
Iklim - Suci dalam Debu.
Tommy J Pisa - Di Batas Kota Ini.

Lagi nyari lagunya Julius Sitanggang - Maria, tapi nggak ketemu2. Ada yang tau.:confused:

yossie3660
02-12-2005, 09:51
dalem bener lagunya...tapi ntah kenape gue demen banget lagu2 doski...kayak selalu sama apa yang gue rasakan tentang "CINTA" itu....ntar kalo mampir di toko supply buat doski deh...dengan beli cd aslinya...:D

Bebi Romeo....01 Lagu Tentang Cinta....

dewanggaba
02-12-2005, 14:14
barusan dapat lagu bagus.

Andy Hunter - The Wonder Of You (OST NFS UNderground).

Wa-1
02-12-2005, 14:19
barusan dapat lagu bagus.

Andy Hunter - The Wonder Of You (OST NFS UNderground).

Kan ada yang satu album.....Isinya OST NFSU pertama....
Yang Andy Hunter memang manteb tapi panjang betuuuul. Kalo nggak salah 8 menit kan.:)

dewanggaba
02-12-2005, 14:35
Kan ada yang satu album.....Isinya OST NFSU pertama....
Yang Andy Hunter memang manteb tapi panjang betuuuul. Kalo nggak salah 8 menit kan.:)
yup, bener banget yang ini aja hampir 8 menit. TApi kayaknya manteb banget deech, jduk jduk jduk...

dewanggaba
02-12-2005, 18:32
Dapat lagu mandarin baru See Me Fly, di denger di kuping enak banget, slow, kalo di artiin menyentuh hati, kalo gue denger lagu ini inget mantan. huhuhuhuuh

yossie3660
02-12-2005, 18:43
berhubung tempat upload gambar lagi mampet, kasus, akhirnya cuman bisa nulis lagi deh...padahal mau upload2 juga...nasib2....yang ini cukup sedih dengernya....

IWAN FALS - Selamat Malam.....

dewanggaba
02-12-2005, 18:51
duh bang Yos, kasean deh ente. hihihihi

yossie3660
02-12-2005, 19:27
duh bang Yos, kasean deh ente. hihihihi
Akhirnya bisa juga bro...hehehe...amin2.. :D

http://i33.photobucket.com/albums/d56/yossie3660/yossie36602des05.jpg

Udin Petot
03-12-2005, 04:18
DEWA 19 - LELY

Dirimu merajai anganku
Kemana kupergi terlintas bayanganmu
Sesaat kucoba untuk tenang
Semakin terasa aku tergila-gila

Coda :
'Kan kukejar dan kukejar
Kemanapun rasa itu pergi
Takkan pernah kulepas

Reff :
LELY padamu kasih Kuserahkan cintaku
LELY untukmu sayang Kuberikan hidupku
LELY akupun slalu Ada disini untukmu

Kucumbu indah wangi tubuhmu
Didalam lembutnya sentuhan jemarimu
Nafasmu menyengat urat nadiku
Yang tersesat diharumnya rambutmu
Back to Coda & Reff :

Eratkan peluk sayang ditubuhku
Rasakan manisnya setia ini Jalani hidup kita
Lintasi badai didepan Bersama diriku
Back to Reff :

Sync :
Bahagia 'kan datang menjelang
Sirami kita berdua
Nikmati cintaku slalu membara
Peluk aku, cium aku, cumbu aku,
Dipuncak gairahku...

Udin Petot
03-12-2005, 04:21
DEWA - Lelilah Satu-Satunya


Laras hati Berkelana iris janji
Mengukir bisikan Bisikan memacu hasrat
Desir-desir mimpi Isyaratkan legit dunia

Reff :
Lelylah satu - satunya
Yang ternyata mengerti aku
Maafkan aku selama ini
Yang sedikit melupakanmu

Sgala santun Yang kau endap dijiwaku
Tak terisap dulu Kini kecapkan sesalku
Anyaman cintamu Terkoyak buram mataku
Back to Reff :

Laras hati Alirkan diri kembali
Membujur tubuhku Sejuk pangkuan dirimu
Tak ingin terbungkus Terbungkus penyesalan

Puing - puing janjiku
Kupugar kembali untukmu
Sgala denyut nadi memanggil
Lelylah satu - satunya
Lelylah satu - satunya [2x]
Maafkanlah aku selama ini......
Back to Reff :

Warlords
03-12-2005, 04:30
itu udah ijin dewa belom ? ngubah lirik sembarangan :D


DEWA - Lelilah Satu-Satunya


Laras hati Berkelana iris janji
Mengukir bisikan Bisikan memacu hasrat
Desir-desir mimpi Isyaratkan legit dunia

Reff :
Lelylah satu - satunya
Yang ternyata mengerti aku
Maafkan aku selama ini
Yang sedikit melupakanmu

Sgala santun Yang kau endap dijiwaku
Tak terisap dulu Kini kecapkan sesalku
Anyaman cintamu Terkoyak buram mataku
Back to Reff :

Laras hati Alirkan diri kembali
Membujur tubuhku Sejuk pangkuan dirimu
Tak ingin terbungkus Terbungkus penyesalan

Puing - puing janjiku
Kupugar kembali untukmu
Sgala denyut nadi memanggil
Lelylah satu - satunya
Lelylah satu - satunya [2x]
Maafkanlah aku selama ini......
Back to Reff :

Udin Petot
03-12-2005, 05:36
itu udah ijin dewa belom ? ngubah lirik sembarangan :D

eh.......................






























belom dink http://www.cheesebuerger.de/images/more/bigs/e058.gif

Warlords
03-12-2005, 06:14
eh.......................


gitu doang jawabnya ?

ditunggu nihh http://img.photobucket.com/albums/v219/toyib/fox.gif





























belom dink http://www.cheesebuerger.de/images/more/bigs/e058.gif[/quote]

andhee
03-12-2005, 06:49
peterpan - menunggumu....

gue beneran nunggu nih....

Warlords
03-12-2005, 06:58
peterpan - menunggumu....

gue beneran nunggu nih....

kan udah jadi sarjana ndhee, apalagi yg ditunggu ? :D

Udin Petot
03-12-2005, 06:59
peterpan - menunggumu....

gue beneran nunggu nih....
nunggu siapa lagi 'ndhee, oh iya kan dah punya gelar, kerjaan juga lumayan, sidejob kenceng, pasti nunggu nyang itu yah http://www.cheesebuerger.de/images/more/bigs/e058.gif

Erius
04-12-2005, 23:21
Michelle Branch feat. Santana - The Game of Love

Udin Petot
05-12-2005, 04:55
RICHARD MARX - Right Here Waiting

Oceans apart day after day and I slowly go insane

I hear your voice on the line

But it doesn't stop the pain

If I see you next to never, how can we say forever



#Wherever you go, whatever you do

I will be right here waiting for you

Whatever it takes or how my heart breaks

I will be right here waiting for you

I took for granted, all the times

That I though would last somehow

I hear the laughter, I taste the tears

But I can't get near you now

Oh, can't you see it baby, you've got me goin' crazy

#Wherever you...





I wonder how we can survive this romance

But in the end if I'm with you

I'll take the chance

Oh, can't you see it baby

You've got me goin' crazy

#Wherever you...

Udin Petot
05-12-2005, 04:56
Rod Stewart - Sometimes when We Touch Lyrics

You ask me if I love you
And I choke on my reply
I�d rather hurt you honestly
Than mislead you with a lie
And who am I to judge you
In what you say or do
I�m only just beginning
To see the real you

And sometimes when we touch
The honesty�s too much
And I have to close my eyes and hide
I want to hold you till I die
Till we both break down and cry
I want to hold you till the fear in me subsides

Romance and all it�s strategy
Leaves me battling with my pride
But through all the insecurity
Some tenderness survives
I�m just another writer
Still trapped within my truth
A hesitant prize fighter
Still trapped within my youth

And sometimes when we touch
The honesty�s too much
And I have to close my eyes and hide
I want to hold you till I die
Till we both break down and cry
I want to hold you till the fear in me subsides

At times I�d like to break you
And drive you to your knees
At times I�d like to break through
And hold you endlessly
At times I understand you
And I know how hard you try
I watched while love commands you
And I�ve watched love pass you by
At times I think we�re drifters
Still searching for a friend
A brother or a sister
But then the passion flares again

And sometimes when we touch
The honesty�s too much
And I have to close my eyes and hide
I want to hold ya till I die
Till we both break down and cry
I want to hold you till the fear in me subsides
Subsides

Udin Petot
05-12-2005, 04:58
BRYAN ADAMS - Everything I do ,I do it for You

Look into my eyes - you will see

What you mean to me

Search your heart - search you soul

And when you find me there you'll search no more

Don't tell me it's not worth tryin' for

You can't tell me it's not worth dyin' for

You know it's true

Everything I do - I do it for you



***



Look into my heart - you will find

There's nothin' there to hide

Take me as I am - take my life

I would give it all I would sacrifice

Don't tell me it's not worth fightin' for

I can't help it there's nothin' I want more

Ya know it's true

Everything I do - I do it for you



***

There's no love - like your love

And no other - could give more love

There's nowhere - unless you're there

All the time - all the way

Don't tell me it's not worth tryin' for

I can't help it there's nothin' I want more

I would fight for you - I'd lie for you

Walk the fire for you - Ya l'd die for you



You know it's true

Everything I do - I do it for you...

yossie3660
05-12-2005, 21:41
Demi melihat hari esok yang ceria, lagu ini beneran tokcer dan menghilangkan ke-ruwetan yang tadi2 cukup gue curahkan di diary....tokcer neh lagu....semoga bisa menjadikan spirit buat yang pernah mendengarkan lagu ini, buat yang belon denger dan ada kesulitan, dengarkan lagu ini pasti jadi semangat lagi oke?...;)

http://i33.photobucket.com/albums/d56/yossie3660/yossie3660_5Des05.jpg

Udin Petot
06-12-2005, 04:01
DEWA - HADAPI DENGAN SENYUMAN

HADAPI DENGAN SENYUMAN
SEMUA YANG TERJADI
BIAR TERJADI….
HADAPI DENGAN TENANG JIWA
SEMUA... KAN BAIK BAIK SAJA

BILA KETETAPAN TUHAN
SUDAH DITETAPKAN
TETAPLAH SUDAH….
TAK ADA YANG BISA MERUBAH
DAN TAKKAN BISA BERUBAH

REFF
RELAKANLAH SAJA INI
BAHWA SEMUA YANG TERBAIK
TERBAIK UNTUK KITA SEMUA
MENYERAHLAH UNTUK MENANG

yossie3660
07-12-2005, 10:39
http://i33.photobucket.com/albums/d56/yossie3660/yossie3660_bebi_romeo_2006.jpg

Mantap neh lagu...akhirnya bel bar juga alias beli baru juga....:) sekalian koleksi lagu2 favorit neh....nendang juga harganya...tapi worthed gue koleksi, banyak kenangannya neh lagu2nya....hasil ripping dari cd audio asli, fresh from oven...:)

http://i33.photobucket.com/albums/d56/yossie3660/yossie3660_7Des2005.jpg

jef
07-12-2005, 11:49
lagi kesengsem ama ben ini...
http://myspace-913.vo.llnwd.net/00116/31/99/116619913_m.jpg (www.myspace.com/asilaydying)
FOREVER ama 94 HOURS...
tobb abis :D:D
----
:curtsie:

log out
07-12-2005, 12:25
PADI semua lagu di album terbaru..:D

eyes
07-12-2005, 12:46
Ebiet G. Ade
Camelia I
dia...camelia...puisi dan pelitaku
kau sejuk seperti titik embun
membasahi daun jambu
di pinggir kali yang bening
sayap-sayap mu kecil lincah berkepak
seperti burung camar
terbang mencari tiang sampan
tempat berpijak kaki dengan pasti
mengarungi nasibmu
mengikuti arus air berlari
dia...camelia...
engkaukah gadis itu
yang selalu hadir dalam mimpi mimpi
di setiap tidurku...
datang untuk hati yang kering dan sepi
agar bersemi lagi...
hm...bersemi lagi
kini datang mengisi hidup
ulurkan mesra tangan mu...
bergetaran rasa jiwaku
menerima karunia mu
camelia...oh...camelia
camelia...oh...camelia
camelia...oh...camelia
:p

yossie3660
07-12-2005, 23:07
Bebi Romeo - 10.Bunga Terakhir......;)

Udin Petot
08-12-2005, 02:54
http://coverart.last.fm/300x300/1411802.jpg




Intro: (clean)
|----------------------------------------------|
|----------------------------------------------|
|.---------------------------------------------|
|.-6-7-9---7-6h7p6-4-5-5-4-7-4-2-3-5---3-2h3p2-|
|--7-----7---------5-----5---5-3-----3---------|
|--0-------------------------------------------|

(x 5)
|----------------------------|
|----------------------------| 3rd and 4th times
|-----------------------2---.| play this with distortion
|-0-2-2-0-2-0-0-2-2-0-2---3-.|
|-2-----2---2-1-----1-----1--| 5th time play all distorted
|----------------------------|

Riff 1:
|------------------------------|--------------------------|
|-.----------------------------|--------------------------|
|-3----.-.----.-.-.----.-.-.-.-|-5-3-2---3-2-----2--------|
|-3----8-7----8-7-6----8-7-6-5-|-5-3-2-5-3-2-5-3-2-5-3-2--|
|-1----8-7----8-7-6----8-7-6-5-|-------5-----5-3---5-3-2--|
|------6-5----6-5-4----6-5-4-3-|--------------------------|

|---------------------------------|
|---------------------------------|
|--2------------------------------|
|--2--5--3--2----5-3-2---2--------|
|-----5--3--2----5-3-2-5-2-5-3-2--|
|----------------------5---5-3-2--|

Riff 2 (x 4)
|--------------------------------|-----------------------------------|
|--------------------------------|-----------------------------------|
|--------------------------------|.---------------------------------.|
|-2------------------------(2)---|.-(2)-------------------------(2)-.|
|-2------------------------(2)---|--(2)-------------------------(2)--|
|-0------------------------(0)---|--(0)-------------------------(0)--|

Riff 3: (x 4)
|------------------------------------------------|
|------------------------------------------------|
|-.-.----.-.------------------.-.----------------|
|-8-8-7--8-8-7---------------8-8-7---------------|
|-8-8-7--8-8-7----5h7-7-5----8-8-7----5h7-7-5----|
|-6-6-5--6-6-5--0---------7--6-6-5--0---------7--|

Riff 4:
|-------------------------|-----------|-----------|-----------|
|-------------------------|-----------|-----------|-----------|
|-.-.----.-.--------------|-2---------|-----------|-2---------|
|-8-8-7--8-8-7--2---------|-2---------|-2---------|-2---------|
|-8-8-7--8-8-7--2---------|-0---------|-2---------|-0---------|
|-6-6-5--6-6-5--0---------|-----------|-0---------|-----------|

Riff 3 (x 2)

Riff 5:
|-------------------------------------------------|
|-------------------------------------------------|
|-.-.----.-.------.----.--------------.----.------|
|-8-8-7--5-5-4----2--x-2-2-------3----2--x-2--2---|
|-8-8-7--5-5-4--.-2--x-2-2---.-.-3--.-2--x-2--2---|
|-6-6-5--3-3-2--0-0--x-0-0---0-0-1--0-0--x-0--0---|

|---------------------------------------------------------------|
|---------------------------------------------------------------|
|-.-.----.-.------.----.--------------.----.------.-.----.-.----|
|-8-8-7--8-8-7----2--x-2-2-------3----2--x-2--2---8-8-7--8-8-8\-|
|-8-8-7--8-8-7--.-2--x-2-2---.-.-3--.-2--x-2--2---8-8-7--8-8-8\-|
|-6-6-5--6-6-5--0-0--x-0-0---0-0-1--0-0--x-0--0---6-6-5--6-6-6\-|

Verse 1
=======

Riff 6: (x 4)
|-------------------------------------------------|
|-------------------------------------------------|
|--------.-------------------.------.-.----.-.----|
|---2--x-2-2-------3----2--x-2--2---8-8-7--8-8-7--|
|-.-2--x-2-2---.-.-3--.-2--x-2--2---8-8-7--8-8-7--|
|-0-0--x-0-0---0-0-1--0-0--x-0--0---6-6-5--6-6-5--|

Fill 1: ??
|-----------------------------|
|-----------------------------|
|-----------------------------|
|-----------------------------|
|-----------------------------|
|-----------------------------|

Riff 7: (x 3)
|-------------------------------|------------------------------------|
|-------------------------------|------------------------------------|
|.-----------------------------.|--------------0h5h7-----------------|
|.-3-------------4\3---4/5-4/5-.|-3-----------------0h5h7------------|
|--3-------------4\3---4/5-4/5--|-3----------------------0h5h7-0h2h3-|
|--1-1-1-1-1-1-1-2\1-0-2/3-2/3--|-1-1-1-1-1-1-1----------------------|

(x 3)
|-------------------------------|------------------------------------|
|-------------------------------|------------------------------------|
|.-----------------------------.|--------------0h5h7-----------------|
|.-3-------------4\3---4/5-4/5-.|-3-----------------0h5h7------------|
|--3-------------4\3---4/5-4/5--|-3----------------------0h5h7-0h2h3-|
|--1-1-1-1-1-1-1-2\1-0-2/3-2/3--|-1-1-1-1-1-1-1----------------------|

|-------------------------------------------------------|
|-------------------------------------------------------|
|-0h5h7-------------------------------------------------|
|------0h5h7------------4-2--------------4\3---4/5-4/5--|
|-----------0h5h7-0h2h3-4-2--------------4\3---4/5-4/5--|
|-----------------------2-0--0-0-0-0-0-0-2\1-0-2/3-2/3--|

Chorus
======

Riff 8:
|-------------------------------------------------|
|-------------------------------------------------|
|--2----4----5------------------------------------|
|--2----4----5----4-2--------------4\3---4/5-4/5--|
|--0----2----3----4-2--------------4\3---4/5-4/5--|
|-----------------2-0--0-0-0-0-0-0-2\1-0-2/3-2/3--|

|------------------------------------------|-------------------------|
|------------------------------------------|-------------------------|
|-2----4-----------------------------------|-2----4----0----5--------|
|-2----4----4-2--------------4\3---4/5-4/5-|-2----4----0----5----2---|
|-0----2----4-2--------------4\3---4/5-4/5-|-0----2---------3----2---|
|-----------2-0--0-0-0-0-0-0-2\1-0-2/3-2/3-|-----------3---------0---|

Riff 3 (x 2)
Riff 5
Verse
Chorus

Riff 3 (x 2)
Riff 1
Riff 2

Solo
====

Riff 7
Riff 6 (x ?)

Fill 2: ??
|------------------------------------------|
|------------------------------------------|
|------------------------------------------|
|------------------------------------------|
|------------------------------------------|
|------------------------------------------|

Riff 6 (x 3)
|--------------------------------------------------------------------|
|--------------------------------------------------------------------|
|--------------------------------------------------------------------|
|-8-8-7--8-8-7--7-7-6--7-7-6--6-6-5--6-6-5--5-5-4--5-5-4--3-4-4-4-4--|
|-8-8-7--8-8-7--7-7-6--7-7-6--6-6-5--6-6-5--5-5-4--5-5-4--3-4-4-4-4--|
|-6-6-5--6-6-5--5-5-4--5-5-4--4-4-3--4-4-3--3-3-2--3-3-2--1-2-2-2-2--|

Intro (x 5) w/distortion
(x 3)
|--------------------------------------------------|-----------------|
|--------------------------------------------------|-----------------|
|------.-.---.-----.-.---.-----.-.---.-----.-.---.-|.-----.-.---.---.|
|--6---6-6-6-6-4---4-4-4-4-2---2-2-2-2-0---0-0-0-0-|.-0---0-0-0-0---.|
|--7---7-7-7-7-5---5-5-5-5-3---3-3-3-3-2---2-2-2-2-|--1---1-1-1-1----|
|--------------------------------------------------|-----------------|

(x 2)
|--------------------|---------------------------|
|--------------------|---------------------------|
|--------------------|.-------------------------.|
|--2------------(2)--|.-(2)-----------------(2)-.|
|--2------------(2)--|--(2)-----------------(2)--|
|--0------------(0)--|--(0)-----------------(0)--|

Riff 3 (x 2)

Fill 3:
|--------------|
|--------------|
|-.-.----.-.---|
|-8-8-7--2-2-3-|
|-8-8-7--2-2-3-|
|-6-6-5--0-0-1-|

Verse
Chorus
Riff 4 (repeat last bar)
Riff 8 (last bar only)
Riff 4

|---------|---------|---------|---------|---------|
|---------|---------|---------|---------|---------|
|-7-------|-5-------|---------|---------|-.-.-.---|
|-7-------|-5-------|-7-------|-5-------|-5-4-2---|
|-5-------|-3-------|-7-------|-5-------|-5-4-2---|
|---------|---------|-5-------|-3-------|-3-2-0---|

|---------|---------|---------|---------|
|---------|---------|---------|---------|
|---------|-5-------|---------|-.-.-.---|
|-5-------|-5-------|-7-------|-5-4-2---|
|-5-------|-3-------|-7-------|-5-4-2---|
|-3-------|---------|-5-------|-3-2-0---|

|---------|---------|---------|---------|
|---------|---------|---------|---------|
|---------|-.-.-.---|---------|-.-.-.---|
|-5-------|-5-4-2---|---------|-5-4-2---|
|-5-------|-5-4-2---|---------|-5-4-2---|
|-3-------|-3-2-0---|---------|-3-2-0---|
--

Udin Petot
08-12-2005, 03:01
Mr. Big - To Be With You



VERSE 1

C#m E | Asus2 E |
Hold on little girl. Show me what he's done to you.

C#m E | Asus2 E |
Stand up little girl. A broken heart can't be that bad.

Asus2 E| Asus2 E |
When it's through, it's through. Fate will twist the both of you.

D |B |
So come on baby, come on over. Let me be the one to show you.


CHORUS
(the following progression is repeated 4x in the chorus.)

E E/F# E/G# E Asus2 BE
0---0----0---0----0-------|-------------0------|
0---0----0---0----0-------|-4-----------0------|
1---1----1---1----2-------|-4-----------1------|
2---2----2---2----2-------|-4-----------2------|
2---2----2---2----0-------|-2-----------2------|
0---2----4---0------------|-------------0------|

Finger the F# with your thumb, the G# with your pinky.
Embellish Asus2, B, and last E chords with whatever rhythm you want.
The song varies the strum pattern for these parts.
Listen to the song to get the feeling - make it flow and feel smooth.

Im the one who wants to be with you.
Deep inside I hope you'll feel it too.
Waited on a line of greens and blues
just to be the next to be with you.

VERSE 2
(same chord progression as first verse)

Build up your confidence so you can be on top for once.
Wake up! Who cares about little boys that talk to much?
I seen it all go down. Your game of love was all rained out.
So come on baby, come on over. Let me be the one to hold you.

BRIDGE

Asus2 |C#m
Why be alone when we can be together baby?

G | |
You can make my life worthwhile. I can make you start to

SOLO

smile.

sl. h p h
-----------------------|----------------------------|
----------5------------|----------------------------|
-1--2/-4-----6----4----|-4----4---------------------|
-2--4/-6-----7----7----|-4----4--6--4--6------------|
-----------------------|----------------------------|
-----------------------|----------------------------|

sl. ~~~ h p p let ring
------------------4----|-2--4-2-0----0--0-----------|
----------5---~~~-5----|----------0--0--0-----------|
-1--2/-4-----6---------|----------------------------|
-2--4/-6-----7---------|----------------------------|
-----------------------|----------------------------|
-----------------------|---------------------0------|

sl.
-----------------------|----------------------------|
----------5------------|--7----9--9----------12-10--|
-1--2/-4-----6----4----|--8----9--9---------9--9----|
-2--4/-6-----7----7----|--9----11-11----9-11--------|
-----------------------|-------------/11------------|
-----------------------|----------------------------|

~~ h p p n.h. sl
--~~~---------------4--|-2--4-2-0--0---12-----------|
-9---10--12---------5--|---------0-----12-----------|
------------/9---~~----|---------------------11/13--|
---------------11\-----|----------------------------|
-----------------------|----------------------------|
-----------------------|----------------------------|

VERSE 3
(same as first verse, except ending strum pattern on B chord is quarter,
quarter, half notes, with a hold on the half)

OUT-CHORUS
(the rhythm is the same as earlier chorus, but in G instead of E and a
few other changes)


G G/A G/B G Cadd9 DG
3---3----3---3----3-------|-2-----------3------|
3---3----3---3----3-------|-3-----------3------|
0---0----0---0----0-------|-2-----------0------|
0---0----0---0----2-------|-0-----------0------|
2---0----2---2----3-------|-0-----------2------|
3------------3------------|-------------3------|

Im the one who wants to be with you.
Deep inside I hope you'll feel it too.

G G/A G/B G Cadd9 D Em This line is different
Waited on a line of greens and blues

just to be the next to be with you.


(back to E progression)
E E/F# E/G# E Asus2 BE
Im the one who wants to be with you
Deep inside I hope you'll feel it too.

E E/F# E/G# E Asus2 B C#m This line is different
Waited on a line of greens and blues

just to be the next to be with you.

Just to be the next to be with you. (hold E on ending)

Udin Petot
08-12-2005, 03:03
Mr. Big - Promise Her The Moon



|-----------------|-----------------|-----------------|-----7-5---------|
|-------2---------|-----------------|-------2---------|---5-------------|
|-5---------------|-3-----3-----2---|-5-------------2-|-3---------------|
|-----------------|---------------3-|-----------------|-----------------|

To Coda
|-----------------|-----------------|-----------------|-----------------|
|-------2---------|-----------------|-3-----2---------|-----------------|
|-5---------------|-3----3------2---|------------3----|-----------1-1-3-|
|-----------------|---------------3-|-----------------|-----------------|

Verse
|-----------------|-----------------|-----------------|-----------------|
|o----------------|-----------------|-----------------|-----------------|
|o----------------|-----------------|-----------------|-----------------|
|-3-----3---------|-----------------|-3------3--------|-----------------|

|----------------|-------------------|----------------|-[5][4]----------|
|----------------|-(5)-(17-17-17-17)-|----------------|-------[5]-------|
|-3----(15)------|-------------------|-3----(15)------|-----------------|
|----------------|------------------|-----------------|----------3-2-x2-|
T T T T T T

|-----------------|-----------------|-----------------|-----------------|
|-----------------|-----------------|-----------------|-----------------|
|-----------------|-----------------|-----------------|-----------------|
|-3----(15)-------|-----------------|-3-----(15)------|-----------------|

|-----------------|-----------------|-----------------|-----------------|
|-----------------|-----------------|-----------------|-----------------|
|-3----(15)-------|-----------------|-3-----(15)------|-----------------|
|-----------------|-----------------|-----------------|-----------------|

|-----------------|-----------------|-----------------|-----------------|
|-----------------|-----------------|-----------------|-----------------|
|-2---------------|-3---------------|-----------------|-3---------------|
|-----------------|-----------------|-0---------------|-----------------|


|-----------------|-----------------|-----------------|-----------------|
|-----------------|-----------------|-----------------|-----------------|
|-2---------------|-3---------------|-0---------------|-----------------|
|-----------------|-----------------|-----------------|-1----(13)-------|

$ Chorus
|-----------------|-----------------|-----------------|-----7-5---------|
|-------2---------|-----------------|--------2--------|---5-------------|
|-5---------------|-3-----3-----2---|-5-------------2-|-3---------------|
|-----------------|---------------3-|-----------------|-----------------|

|-----------------|-----------------|-----------------|-----------------|
|-------2---------|-----------------|--------2--------|-----------------|
|-5---------------|-3-----2---------|-5---------------|-----------------|
|-----------------|-----------------|-----------------|-1---------------|

_________________
DC 3rd Time 1
|-----------------|-----------------|-----------------|-----------------|
|-----------------|-----------------|-----------------|-----------------|
|-3---------------|-----------------|-----------------|-3---------------|
|-----------------|-3-----(15)------|-----------------|-----------------|

__________________ ___________
|2
|-----------------|-----------------|-----------------|-----------------|
|---5-4-2--------o|-----------5-----|-----------------|-----------5-----|
|-3-------5------o|-----------------|-----------------|-----------------|
|-----------------|-1-----1-----1-2-|-3-----3---3-3-2-|-1-----1-----1-2-|

|-----------------|-----------------|-----------------|-----------------|
|-----------------|-----------------|-----------------|-----------------|
|-----------------|-0-----0---------|-3-----3---------|-0-----0---------|
|-3-----3---3-3-4-|-----------------|-----------------|-----------------|

/.\ D$ Coda /.\
|-----------------|-----------------|| |-----------------|
|-----------------|------------3----|| |-----------------|
|-5-----5---------|-2-----3---------|| |-----------------|
|-----------------|-----------------|| |------3----------|

Udin Petot
08-12-2005, 03:08
Saigon Kick - Love Is On the Way



E-|---------0--------------------|-|
B-|-------0---0------------------|-|
G-|-----8-------8----------------|-|
D-|---6-----------6-----9~~--9---|-|
A-|-4-----------------7--------5-|-|
E-|-----------------5------------|-|

The chorus has basic chords and is picked like so:

E B
E-|---------0---------------0-------------------------------------------------|
B-|-------0---0-----------0---0------------5-4-------------4-5-4--------------|
G-|-----1-------1-------1-------1--------4-----4---------4-------4------------|
D-|---2-----------2---2-----------2----4---------4-----4-----------4----------|
A-|----------------------------------2-------------2-2------------------------|
E-|-0---------------0---------------------------------------------------------|

C#m Asus2
E-|---------4---------------4----------------0---------------0----------------|
B-|-------5---5-----------5---5------------0---0-----------0---0--------------|
G-|-----6-------6-------6-------6--------2-------2-------2-------2------------|
D-|---6-----------6---6-----------6----2-----------2---2-----------2----------|
A-|-4---------------4----------------0---------------0------------------------|
E-|---------------------------------------------------------------------------|


Now, after the second chorus, there's the bridge ("And in the mornin' I'll be
gone away...") which also features simple chords picked like this:
Bsus2 Asus2 E (repeat)
E-|---------2---------------2---------------0---------------0-----------------|
B-|-------2---2-----------2---2-----------0---0-----------0---0---------------|
G-|-----4-------4-------4-------4-------2-------2-------1-------1-------------|
D-|---4-----------4---4-----------4---2-----------2---2-----------2-----------|
A-|-2---------------2---------------0-----------------------------------------|
E-|-------------------------------------------------0-------------------------|

Okay, here's the tab for the solo, it's not as hard as it may look. I'm no
lead guitarist by ANY stretch of the imagination and I can play it without
too much effort. This is played over the verse progression:

E-|--9h11h12-11-9----9--------------------------------------------------------|
B-|---------------12---9--------------------------10p9h10-9---14p12--14-------|
G-|----------------------9-8----------------9p8h9-----------------------------|
D-|--------------------------11~~~--11p9h11-----------------------------------|
A-|---------------------------------------------------------------------------|
E-|---------------------------------------------------------------------------|


E-|---------------------------------------------9h11-12-/14-12-11-12-/16------|
B-|-12p10p9-10----9-----------------------------x-----------------------------|
G-|------------11---11-9-11-9-8--/9-9--/6-6~~---x-----------------------------|
D-|---------------------------------------------x-----------------------------|
A-|---------------------------------------------------------------------------|
E-|---------------------------------------------------------------------------|


E-|-14-14-12-12p11-11p9-9-11h12-11-12~~---------------------------------------|
B-|---------------------------------------------------------------------------|
G-|---------------------------------------11p9h11-9--11--11p9h11-11h13p11-----|
D-|---------------------------------------------------------------------------|
A-|---------------------------------------------------------------------------|
E-|---------------------------------------------------------------------------|


E-|-------------------------------9-9~~--12-12~~-|
B-|---------9h10h12--10-9-10-12~~----------------|
G-|-9--11---x------------------------------------|
D-|---------x------------------------------------|
A-|---------x------------------------------------|
E-|----------------------------------------------|

Udin Petot
08-12-2005, 03:39
Rolling Stones - Angie



Intro

*Harmonic(natural)
e|------0-0---3-0------------0------0----3-----1-1-1---1------1-----|
B|------1---1-0-0---1-------3-3---3-----3-3----1-1--1-------------1-|
G|------2---2------2-------4---4--4----5---5---3-2----2----0-0-----0|
D|------2------------2-0--------------5-----5--3-3---3----3--2---0--|
A|-12*-----------------------------------------1-3-------3---3--2---|
E|------------------------0------4----------------------------------|

Chord Am* version Chord E*
e|-----0------| e|--0--|
B|---1-1-3-1--| B|--1--|
G|-2-2--------| G|--0--|
D|-2----------| D|--0--|
A|-0----------| A|--2--|
E|------------| E|-----|

Chord C* version
e|-1-0-0-0--|
B|-1-1-3-1--|
G|-0-0-0-0--|
D|-2-2-2-2--|
A|-3-3-3-3--|
E|----------|

Solo(piano+guitar) find the rhythm on these tabs

e|---8-7-5----7-----------6-5-3-6-5-3-5--1-0-0-0--0--|
B|---5-5-5----9--10--9----3-3-3-3-3-3-3--1-1-3-1--1--|
G|---5-5-5--9-----9--9--5-5-5-5-5-5-5-5--0-0-0-0--0--|
D|-7--------9-----9--9--5----------------2-2-2-2--0--|
A|-7--------7-----------3----------------3-3-3-3--2--|
E|-5-------------------------------------------------|

e|---8-7-8-5-----7--7---6-5-3-6-5-3-5--1-0-0-0--|
B|---5-5-5-5----10--9---3-3-3-3-3-3-3--1-1-3-1--|
G|---5-5-5-5--9--9--9-5-5-5-5-5-5-5-5--0-0-0-0--|
D|-7----------9-------5----------------2-2-2-2--|
A|-7----------7-------3----------------3-3-3-3--|
E|-5--------------------------------------------|


The song :

Intro

Am* E E7
Angie , Angie
C9 Bb9 F C* E*
When will those clouds all disappear
Am* E E7
Angie , Angie
C9 Bb9 F C*
Were will it lead us from here
C G
With no loving in our souls
Dm Am
and no money in our coats
C F G
You can't say we're satisfied
Am* E E6 E7
Angie , Angie
C9 Bb9 F C* E*
You can't say we never tried
Am* E E7
Angie , you're beautiful ... yeah
C9 Bb9 F C* E*
but ain't it time we said goodbye
Am* E E7
Angie , I still love you
C9 Bb9 F C*
Remember all those nights we cried
C G
All the dreams we held so close
Dm Am
Seemed to all go up in smoke
C F G
Let me whisper in your ear
Am* E E7
Angie , Angie
C9 Bb9 F C* E*
Where will it lead us from here

(Solo)
C G
Oh Angie don't you weep
Dm Am
All your kisses still taste sweet
C F G
I hate the sadness in your eyes
Am* E E7
But Angie , Angie
C9 Bb9 F C* E*
Ain't it time we said goodbye...yeah

(solo)

C G
With no loving in our souls
Dm Am
and no money in our coats
C F G
You can't say we're satisfied
Dm Am
But Angie , I still love you baby
Dm Am
Everywhere I look I see your eyes
Dm Am
There ain't a woman that comes close to you
C F G
Come on baby dry your eyes
Am* E E7
Angie , Angie
C9 Bb9 F C* E*
Ain't it good to be alive
Am* E E7
Angie , Angie
C9 Bb9 F C*
They can't say we never tried



Chords:

Bb9:113311

C9 :335533

Udin Petot
08-12-2005, 04:13
Metallica - Enter Sandman



N.C. E5 N.C. E5
1/4
e:----------------------------|-------------------------------------|
B:-15-15-15-12-----12---------|------12-12----15b(17)-15b(17)-(15)/-|
G:-------------14b----14b(16)-|-(14)-------14-----------------------|
D:----------------------------|-------------------------------------|
A:----------------------------|-------------------------------------|
E:----------------------------|-------------------------------------|



N.C. G5

e:-------------------------------------------------|
B:-------------------------------------------------|
G:-12/14-14-14-14\12-12-12-12/14-14-14-14\12-12-12-|
D:-------------------------------------------------|
A:-------------------------------------------------|
E:-------------------------------------------------|



F#5 G5 F#5 E5
~~~~~~
e:-------------------------------------|
B:-------------------------------------|
G:-14p12-------------------------------|
D:-------14-14p12----------------------|
A:----------------14-14p12/10----------|
E:----------------------------12-(12)/-|



N.C. E5

e:---------12-12-12---------12-12-12---------12-12-12---------12-12-12-|
B:-15b(17)----------15b(17)----------15b(17)----------15b(17)----------|
G:---------------------------------------------------------------------|
D:---------------------------------------------------------------------|
A:---------------------------------------------------------------------|
E:---------------------------------------------------------------------|



N.C. E5

e:---------12-12-12h15p12-12h15p12-12h15p12-12-15-12-12-14-14-|
B:-15b(17)----------------------------------------------------|
G:------------------------------------------------------------|
D:------------------------------------------------------------|
A:------------------------------------------------------------|
E:------------------------------------------------------------|


N.C. G5

e:-17p14----17p14----17p14-19p15----19p15----19p15-|
B:-------15-------15-------------17-------17-------|
G:-------------------------------------------------|
D:-------------------------------------------------|
A:-------------------------------------------------|
E:-------------------------------------------------|


Half-Time Feel
F#5 G5 F#5 N.C.
~~~~~~~~~~
e:-21p17----21p17----21p17----22b(24)-(22)/--------|------------------|
B:-------17-------17-------17---------------9b(10)-|-(9)---9b(10)---9-|
G:------------------------------------------9b(11)-|-(9)---9b(11)---9-|
D:-------------------------------------------------|------------------|
A:-------------------------------------------------|------------------|
E:-------------------------------------------------|------------------|




~~~~~ ~~~~~~~~
e:-----------------------------------|------------------------------------|
B:-9b(10)--9b(10)-----------------10-|-(10)----10-8-7---7/8\7---7---------|
G:-9b(11)--9b(11)--7--9--------7-----|----------------9-------9---9-7---7-|
D:------------------------7h9--------|--------------------------------9---|
A:-----------------------------------|------------------------------------|
E:-----------------------------------|------------------------------------|


End HTF
F#5 B5 F#5
~~~~~
e:-----------------------------|---------------------------------------|
B:-----------------------------|---------------------------------------|
G:-9p7-------------------------|-16b(18)-14-----14-16b(18)--14------14-|
D:-----9p7---7-9-7-------------|------------16------------------16-----|
A:---------9-------9-6-7-------|---------------------------------------|
E:-----------------------10-7\-|---------------------------------------|



B5 F#5

e:--------------------------------------|
B:--------------------------------------|
G:-16b(18)-14----14-16b(18)-14-------14-|
D:------------16---------------16-16----|
A:--------------------------------------|
E:--------------------------------------|


B5 E5 Grad. Trem.
Release
e:------------------------------------------------|------------|
B:---------17---------17---------------17---------|------------|
G:-16b(18)----16b(18)----16b(18)----------16b(18)-|-(16)-------|
D:------------------------------------------------|------------|
A:------------------------------------------------|------------|
E:------------------------------------------------|------------|



F#5 B5 E5

e:-21p17----21p17----21p17----21p17----21p17----21p17----|
B:-------17-------17-------17-------17-------17-------17-|
G:-------------------------------------------------------|
D:-------------------------------------------------------|
A:-------------------------------------------------------|
E:-------------------------------------------------------|




~~~~~~~~~~~~~~
e:-22b(24)--22-22--22b(24)--22-22-22b(24)-------(22)\-|
B:----------------------------------------------------|
G:----------------------------------------------------|
D:----------------------------------------------------|
A:----------------------------------------------------|
E:----------------------------------------------------|



E5
~~~~trem~~~~
e:-----------------------------|-------------------------|
B:-10p8p7----------------------|-------------------------|
G:--------9-9p7----------------|-------------------------|
D:--------------9-9p7-5--7b(9)-|-5-----------------------|
A:-----------------------------|----7---(7)----------5h7-|
E:-----------------------------|-------------------------|




~~~~~~~trem~~~~~~~
e:--------------------------|
B:--------------------------|
G:--------------------------|
D:--------------------------|
A:-4---(4)----------------0-|
E:--------------------------|

Udin Petot
08-12-2005, 04:31
Metallica - The Unforgiven



Intro:Starts with a horn


rythm: clean electric
or acoustic guitar:Jaymz
(with fingers)
|--------------------------------|
|-0-----0-----0-----0-----1------|
|---2-----2-----2-----2-----2----|
|-----2-----2-----2-----2-----2--|
|-0------------------------------|
|--------------------------------|
Keep repeating along with the lead
guitar until the verse starts.


lead:clean electric guitar:Kirk
|------------------------------------------|
|------------------------------------------|
|--2--4--4h5---5-4-2----2--4--4h5---5--2---|
|------------------------------------------|
|------------------------------------------|
|------------------------------------------|
Repeat this one more time, then the drums and
bass come in, and a similar sounding but
different line is played....

|-------------------------------------------|
|-------------------------------------------|
|--2--4--4h5--5--5--5--4---4\---2--2h4--2---|
|------------------------5----2-------------|
|-------------------------------------------|
|-------------------------------------------|

|------------------------------------------------|
|------------5--5--5--3--------------------------|
|--2--4--4h5------------4--4\--1--/4--1--2h4-2---|
|------------------------------------------------|
|------------------------------------------------|
|------------------------------------------------|


Verse 1: .

Kirk's part (Played right along with the words.)
|-------------------------------------------|
|------------------8--8--7--7---------------|
|-7--5--4--4h5----------------5--5---7------|
|--------------5----------------------------|
|-------------------------------------------|
|-------------------------------------------|
Keep repeating throughtout..


|------------------------|
|------------------------|
|--5----4----2----0------|
|---0----0----0----0-----|
|----00---00---00---00---|
|------------------------|
"on and on. He's known"

play Kirk's intro part for the chorus
then for the next verse, repeat the same
as the first verse.

Interlude w/ reverb
Played by Kirk

|-------------------------------------------------|
|-----------------------------0-1-3-5-3-1-0h1/3---|
|---4-5-7-5-4h5p4---4-----------------------------|
|-7---------------7---5-5h7-----------------------|
|-------------------------------------------------|
|-------------------------------------------------|

|--3\5-3--2---------------------------------------|
|--3\5-3--3--3h5h3-3------------------------------|
|--------------------4-----------------5----------|
|----------------------5-------------5---5-5/7----|
|----------------------------3/5-6-7--------------|
|------------------------3-5----------------------|

|-------------------7---7-----10--------12---------14-----15--17--|
|--8-7h8p7---7-8-10---8---8-8----8-8/10---10-10/12---12-12--14----|
|----------9------------------------------------------------------|
|-----------------------------------------------------------------|
|-----------------------------------------------------------------|
|-----------------------------------------------------------------|


Solo: by Kirk
w/ distortion
|-----------------------------------------------------------------|
|--7^--7^---------------------------------------------------------|
|--7^--7^--5------------------------------------5--7--5-7-7/9-7-9-|
|------------7--7^--5------------------------/7-------------------|
|---------------------7-5/3-5-3--------3^-------------------------|
|-------------------------------5-3-5-----------------------------|
(extreme repeated bending)
|----------------10-------8------10------------------------|
|-7--7-8-7h8--10----10--10--10-10--10----20^^^^^^^^^-17----|
|---9------------------------------------------------------|
|----------------------------------------------------------|
|----------------------------------------------------------|
|----------------------------------------------------------|

|-20^--20^^^--17-17-20p17----17--------------10p9-7-9---9---------|
|-------------------------20----20^------------------10---8-7---7-|
|-----------------------------------------\9------------------9---|
|-------------------------------------17\-------------------------|
|-----------------------------------------------------------------|
|-----------------------------------------------------------------|

|------------------------------12--------12-------12-------12---------|
|---------------------------13----13--------13-------13-------13------|
|-9-7\5-7-5\4-5-4-2----\14-----------14--------14-------14-------14---|
|---------------------------------------------------------------------|
|---------------------------------------------------------------------|
|---------------------------------------------------------------------|

|-12--------12-------12--------------------------------------17-19-20-|
|----13--------13-------13----------------------20^---20^-------------|
|-------14--------14-------14----19^----19^--17-----------------------|
|---------------------------------------------------------------------|
|---------------------------------------------------------------------|
|---------------------------------------------------------------------|

|-19-17-19--17h19p17-----17-------------------------------------------|
|-------------------20^----20-17----20-17-----------------------------|
|-------------------------------19^------19-19^p17-19^p17--19^-19^-17-|
|---------------------------------------------------------------------|
|---------------------------------------------------------------------|
|---------------------------------------------------------------------|

|-------------------------------------------------|
|-20~~~---18h20p18---17~~~~~--18p17~~~~~~~~~~-----|
|-------------------------------------------------|
|-------------------------------------------------|
|-------------------------------------------------|
|-------------------------------------------------|

Udin Petot
08-12-2005, 04:41
Skid Row - I Remember You



Intro: (twelve-string guitar)

Fig 1 h h p (repeat)

E---3---3------3--------------0-------0------------|--------------------------
B---3-----3-3-----3--------3-----3-3-------0-3-0---|--------------------------
G---0-----0-0--------------0-----0-0-----0-------0-|--------------------------
D---0-----0-0-----------0--2-----2-2---------------|--------------------------
A---2-----2-2-------0-2----3-----3-3---------------|--------------------------
E---3----------------------------------------------|--------------------------

End 1 (acoustic) End 1 (electric
p p

E--2--x-2------3-2------0--------|--------------------------------------------
B--3--x-3----------3----3--------|-7----7------8-7----5--\--------------------
G--2--x-2----2-------2--0--------|-7----7----7-----7--5--\--------------------
D--0--x-0--0------------2--------|-7----7--7----------5--\--------------------
A-----------------------3------2-|-5--5-5-------------3--\--------------------
E--------------------------------|--------------------------------------------
p p--------- slide down
End 2 (acoustic)
p h p

E--2--x-2------3-2-------0----0---------|-2--x-2------3-2-----0--0--0---------
B--3--x-3----3-----3-----3----3---------|-3--x-3----3-----3---3--3--3---------
G--2--x-2--2---------2---0----0-------0-|-2--x-2--2---------2-0--0--0---------
D--0--x-0--------------0-2--2-2---0-2---|-0--x-0--------------2--2--2---------
A------------------------3----3---------|---------------------3--3--3--2------
E---------------------------------------|-------------------------------------

End 2 (electric)
p s p

E---------------------------------------|-------------------------------------
B--7----7------8-7-------5----5---------|-7----7------8-7-----5--5--5---------
G--7----7----7-----7-----5----5---------|-7----7----7-----7---5--5--5---------
D--7----7--7---------7---5----5-------5-|-7----7--7---------7-5--5--5---------
A--5--5-5----------------3--3-3---5-7---|-5--5-5--------------3--3--3--2------
E---------------------------------------|-------------------------------------
p p.m.------- p p p.m.-------


Chorus: (electric)
s s

E-----------------------------------------------------------------------------
B-----------------------------------------------------------------------------
G---------------------7---x-7---------7----9---x-9--9----5--------------------
D--5---x-5------------7---x-7-----7-9---9--9---x-9--9----5--------------------
A--5---x-5---------5--5---x-5--5-----------7---x-7--7----3-------2-3-2-0------
E--3---x-3--3--5-7------------------------------------------------------------
p p p (repeat twice)

End Chorus:

E-----------------------------------------------------------------------------
B-----------------------------------------------------------------------------
G---------------------5---x-5-----5---------------------5---x-5---------------
D--5---x-5---5--------5---x-5-----5----5---x-5----5-----5---x-5---------------
A--5---x-5---5--------3---x-3-----3----5---x-5----5-----3---x-3---------------
E--3---x-3---3-------------------------3---x-3----3---------------------------
p p p p (fade out)

Lead fill during second verse:

b (1) r p p p p p
E-----------------------------------------|------------------------------------
B-----------------------------------------|------------------------------------
G-14'---14--14-12-14-12-14-12----14-12~~~~|-12-12----12------------------------
D-----------------------------14----------|-12-12----12------------------------
A-----------------------------------------|-------14----14-12-10~~~~-----------
E-----------------------------------------|------------------------------------
p p p p p

Solo guitar:
h p h p h p h p h p h p h
b (1) r
E------------------------------------|-----------------------------------------
B------------------------------------|--8~~~~~~~~~~--7-8-8'-------8-7-8~~~~~~~-
G------------------------------7-9-7-|-----------------------------------------
D----------------5-7-5--7-9-7--------|-----------------------------------------
A--0-2-0--5-7-5----------------------|-----------------------------------------
E------------------------------------|-----------------------------------------

a.h.
b (1) r s s
-------------------------------------------------------------------------10---
--7-8---8---8----8---8---8--------------8'-----------------------------8------
------9---7-------------------------------------------------------7--9--------
--------------10---9---7----------------------------------7--9-5--------------
---------------------------10~~~~~----------------------5---------------------
----------------------------------------------12-\----3-----------------------
p p p p p p p


s p p p p p b (1) (dive w/ bar)
/-15---15-12------------------------------------------------------------------
-------------15-12-----------------------------------15'--15~~~~--------------
-------------------14-12-----14--12--14--12------12-------------0-------------
---------------------------------------------14-------------------------------
------------------------------------------------------------------------------
------------------------------------------------------------------------------
p


b (1) r h b (1) r p p p p h p p h p
-17'-----15--17~~~~~~---------------------------------------------------------
------------------------------------------------------------------------------
-------------------------14'---14-12----12------------------------------------
-------------------------------------14----14-12------------------------------
-------------------------------------------------14-13-12-14-12-10-12-10~~~~~~
------------------------------------------------------------------------------


s p (moderate vibrato)
------------------------------------------------------------------------------
------------------------------------------------------------------------------
/-12~~~-12-11-9-11-9--7-9-7--5-7-5--4--5-4---4-------4------------------------
-------------------------------------------5----5-7-----5~~~~~----------------
------------------------------------------------------------------------------
------------------------------------------------------------------------------
p

a.h.
(heavy) (w/ feedback) (slow bend) (fade out).........
------------------------------------------------------------------------------
------------------------------------------------------------------------------
--12~~~~~~~~~~~------7~~~~~~~~~~~~----4'-~~~~~~~~~~~~~~~~~--------------------
------------------------------------------------------------------------------
------------------------------------------------------------------------------
------------------------------------------------------------------------------


Ending solo:

p p p p p p p p p p p p
E--15-12-------------15-12-------------15-12-------------15-12----------------
B--------15-12-------------15-12-------------15-12-------------15-12----------
G--------------14-12-------------14-12-------------14-12-------------14-12----
D-----------------------------------------------------------------------------
A-----------------------------------------------------------------------------
E-----------------------------------------------------------------------------

h p s s (fade)
------------------------------------------------------------------------------
------------------------------------------------------------------------------
-12~~~~~~-11-12-11~~~~------11----12----11--------------------5-\-------------
-------------------------12----12----12----12-12---14~~~~~~---5-\-------------
--------------------------------------------------------------3-\-------------
------------------------------------------------------------------------------


End:

s s s s s
E----------3---------------0---------------3---------------3/5\3----------3---
B------------3---------3-----3---------------3---------3---3/5\3-3/5\3-0--3---
G------0-------0---------0-----0-------0-------0---------0-------2/4\2-0--0---
D--------0-------0---2-----------2-------0-------0---2--------------------0---
A----2-------------3-----------------2-------------3----------------------2---
E--3-------------------------------3--------------------------------------3---
let ring....................................... (ritard...............

Lyrics:

Woke up to the sound of pouring rain
The wind would whisper and I'd think of you
And all the tears you cried, they called my name
And when you needed me I came through

I paint a picture of the days gone by
When love went blind and you would make me see
I'd stare a lifetime into your eyes
So that I knew that you were thare for me
Time after time, you were there for me

Chorus:
Remember yesterday - Walking hand in hand
Love letters in the sand
I remember you
And through the sleepless nights and every endless day
I'd wanna hear you say
I remember you

We spent the summer with the top rolled down
Wished ever after would be like this
You said "I love you, babe" without a sound
I said I'd give my life for just one kiss
I live for your smile and die for your kiss

Chorus:

We've had our share of hard times
But that's the price we paid
And through it all we kept the promise that we made
I swear you'll never be lonely


Notation:

h - hammer-on
p - pull-off
b - bend (pitch to bend up to)
' - bend
r - release
p - underneath tab represents palm-muting
~ - vibrato
a.h. - artificial harmonic

Warlords
08-12-2005, 04:48
wah udin benar2 kejar setoran disini :D

Udin Petot
08-12-2005, 04:53
wah udin benar2 kejar setoran disini :D
sekalian ngomentarin gua dapet 1 post juga yah Wan http://www.cheesebuerger.de/images/more/bigs/e058.gif

Warlords
08-12-2005, 05:10
sekalian ngomentarin gua dapet 1 post juga yah Wan http://www.cheesebuerger.de/images/more/bigs/e058.gif

itu sih nyindir diri lu sendiri din :crazy:

Wa-1
08-12-2005, 06:47
Mantap neh lagu...akhirnya bel bar juga alias beli baru juga....:) sekalian koleksi lagu2 favorit neh....nendang juga harganya...tapi worthed gue koleksi, banyak kenangannya neh lagu2nya....hasil ripping dari cd audio asli, fresh from oven...:)



Hehehe....Yang kemaren dibeli itu kan...:D Wah, baru banget tuh.:D

yossie3660
08-12-2005, 08:27
Hehehe....Yang kemaren dibeli itu kan...:D Wah, baru banget tuh.:D
wah2...dah mampir ke forum lagi dikau...hahaha, seru2....gimana tokcer2 dengan bingkisan ntu kan?....hahaha, iyah bener bro yang kemaren ini fressh from oven...masih hangat....(",)

now listening.... PETERPAN - Kupu Kupu Malam....:)

si_yoyo
08-12-2005, 10:37
Bunga Citra lestari with Victorian Philharmonic orchestra - Saat kau pergi.mp3

Artifac
08-12-2005, 12:18
Heronie.mp3 by Nami Tamaki

Udin Petot
09-12-2005, 01:27
itu sih nyindir diri lu sendiri din :crazy:
sama aja Wan http://www.cheesebuerger.de/images/more/bigs/e124.gif

Warlords
09-12-2005, 01:40
sama aja Wan http://www.cheesebuerger.de/images/more/bigs/e124.gif

beda dong :crazy:

harry_ls
09-12-2005, 03:49
Gw biasanya dengerin' lagunya para virtuoso kaya Yngwie Malmsteen, Steve Vai, Joe Satriani, John Petrucci(Dream Theater)..... Itu paten bung..!!!

Tp akhir-akhir ini gw rada sering denger Ashlee Simpson - Say goodbye...:p ... hehehe ko jadi jauh yah....:p

cLcL
09-12-2005, 08:14
Opick feat. Amanda - Alhamdulillah...

[hari Jumat neeh... Islami dunkk.. hehehe.. :D ]

yossie3660
09-12-2005, 09:17
Gile....dengerin lagu2 menjelang Natal bener2 bikin nyaman disambi kerja....sayang gue dapet ga ada judul2nya neh....tapi kalo ndak salah Ave Maria versi klasik sih.....:)

rh_rpg
09-12-2005, 14:37
When Christmas Comes To Town

Andy Tan
09-12-2005, 14:54
Holy Night - Mariah Carey

Erius
09-12-2005, 14:54
Gorillaz
Feel Good Inc.
Demon Days
http://img205.imageshack.us/img205/695/albumart316bf3d99cea418aae2626.jpg

jef
09-12-2005, 15:01
http://images.windowsmedia.com/img/prov_s/300_80/00000000000000015895-800x800_72dpi_RGB.jpg

Udin Petot
10-12-2005, 03:26
http://img.photobucket.com/albums/v287/UNGRIM/sepultura/91_arise.jpg




P.M.............................
|------------------------------------------------------------------|
|------------------------------------------------------------------|
|------------------------------------------------------------------|
|------------------------------------------------------------------|
|--5\-4---6----3---3---2----------------------------------3---3----|
|--3\-2---4----1---1---0---0-0-0-0-0--0-0-0-0-0-0-0-0-0-0-1---1----|

P.M. P.M. P.M. P.M.
|------------------------------------------------------------------|
|------------------------------------------------------------------|
|------------------------------------------------------------------|
|------------------------------------------------------------------|
|-2-----7------6-----6-----6--6--7---------------------------------|
|-0--0-----0------0-----0------------------------------------------|

P.M................ P.M. P.M. P.M. Play 4 times
|---------------------------------------------------|
|---------------------------------------------------|
|---------------------------------------------------|
|---------------------------------------------------|
|---------------------7-----6------6-----6-6-6-6-7--|
|0-0-0-0-0-0-0-0-0-0-----0------0-----0-------------|

Rhy Fig 1 Play 4 times
P.M. P.M..........................
|-----------|------------------------------------------------|
|-----------|------------------------------------------------|
|-----------|------------------------------------------------|
|-----------|------------------------------------------------|
|-----3---3-|-2------------------------------------3-----3---|
|-0---1---1-|-0---0-0-0-0-0--0-0-0-0-0-0-0-0-0-----1-----1---|


P.M. ... ..... ... ....
|-------------------------------------------------------|
|-------------------------------------------------------|
|-------------------------------------------------------|
|-------------------------------------------------------|
|--2-----7-----6------6------6------6-----6-6-6--6-6-7--|
|--0--0-----0------0-----0------0------0----------------|

Rhy Fig 2a

|--------------------------------------------------|
|--------------------------------------------------|
|--------------------------------------------------|
|--------------------------------------------------|
|-------7-----6-----6-----6-----6----6--6--6--6--7-|
|-0-0-0----0-----0-----0-----0----0----------------|

Rhy Fig 2b w/Echo in "obscured"
P.M.... ... ... ... ... ......
|----------------------------------------------------|
|----------------------------------------------------|
|----------------------------------------------------|
|----------------------------------------------------|
|--------7------6-----6-----6-----6--------3------3--|
|-0-0-0-----0------0-----0-----0-----0--0--1------1--|

Rhy fig 1 4 times w/ "Obscured by the sun, Apocalyptic clash"

Riff A

|------------------------------------------------------------------|
|------------------------------------------------------------------|
|--10---/---12--------(12)------------------10\--------------------|
|------------------------------------------------------------------|
|---8---/---10--------(10)-------------------8\--------------------|
|------------------------------------------------------------------|

??????????????????
Chorus<sorta> P.M.................
|------------------------------------------------------------------|
|------------------------------------------------------------------|
|------------------------------------------------------------------|
|------------------------------------------------------------------|
|--5---3-----------------------------3-----------------------------|
|--3---1---4-4-4-4-4-4-4-4-4-4-4-4---1-----------------------------|


2nd verse
Rhy fig 1 (4 times)
P.M........................
|---------|-----------------------------------------|
|---------|-----------------------------------------|
|---------|-----------------------------------------|
|---------|-----------------------------------------|
|-2-------|------------------------------3--\---2---|
|-0-------|-0--0---0---0-0-0-0--0--0--0--1--\---0---|

P.M.....................
|-----------------------------------|
|-----------------------------------|
|-----------------------------------|
|-----------------------------------|
|--------------------------3--\--2--|
|0-0-0-0-0-0-0---0--0--0---1--\--0--|

Play 4 times
P.M.................... \....................
|-----------------------|------------------------------------------|
|-----------------------|------------------------------------------|
|-----------------------|------------------------------------------|
|-----------------------|------------------------------------------|
|-----------------------|-3--\--2-----4--/--6----------------------|
|-0--0--0--0--0--0--0--0|-1--\--0-----2--/--4--0--0--0--0--0--0-0-0|

<fun part>

P.M............................................... ...............
|------------------------------------------------------------------|
|------------------------------------------------------------------|
|------------------------------------------------------------------|
|------------------------------------------------------------------|
|------------------------------------------------------------------|
|--4--3--0--4--3--0--3--2--0--2--1--0--0--0---0---0----------------|

P.M. ... .... .... ......................
|------------------------------------------------------------------|
|------------------------------------------------------------------|
|------------------------------------------------------------------|
|------------------------------------------------------------------|
|---6\5------6\5-----5\4------4\3----------------------------------|
|---4\3--0---4\3--0--3\2---0--2\1--0--0---0---0---0----------------|


W/ "I see the world, old. I see the world dead."
|------------------------------------------------------------------|
|------------------------------------------------------------------|
|------------------------------------------------------------------|
|------------------------------------------------------------------|
|---------------------------------------6-\-5----6-\-5-----6-------|
|-0-0-0-0-0-0-0-0-0-0-0-0-0-0-0-0-0-0-0-4-\-3-0--4-\-3--0--4-------|

Solo rhythm
P.M.......................................... .. ... .....
|------------------------------------------------------------------|
|------------------------------------------------------------------|
|------------------------------------------------------------------|
|------------------------------------------------------------------|
|----------------------------------------------6--5---6-5---6-5----|
|-0--0--0-0-0-0-0-0-0-0-0-0-0-0-0-0-0-0-0-0-0--4--3-0-4-3-0-4-3-4-1|

rhy fig 2a 2times
w/ "Victims of war"
|------------------------------------------------------------------|
|------------------------------------------------------------------|
|------------------------------------------------------------------|
|-2------------2----------------------2-----2------1---------------|
|------------------------------------------------------------------|
|---1-1-1-1-1----1-1-1-1-1--1--1-1-1-----1-----------1-1-1-1-1-1-1-|

yossie3660
10-12-2005, 10:09
Lagi dengerin lagu yang ada di warnet terdekat neh...lagunya Jody...yang judulnya "Gue Ingin Elo Ada disini...." Kalo ga salah loh....hahaha...lagi terdampar di Bandung neh....ada kawinan sodara jadi meluncur di Kota Kembang ini...surping dulu ah....;)

Initial D
10-12-2005, 11:07
Lg denger lagu2 Eurobeat en Techno :


~ Powerful T - The year of Dragon
~ Ace - FANTASTITA!
~ Ace Warrior - Fight for Love Tonight
~ Ace - Take My Breath Away
~ Street of Fire (taken from Initial D 3rd Stage)
~ Night of Fire
~ Dave Rodgers - Wheels of Fire
~ Dave Rodgers - Deja Vu
~ Ika - GO GO GODZILLA GO!
~ Dark Angels - Right Now
~ MEGA NRG MAN - Space Racing
~ MEGA NRG MAN - Over The Line
~ MEGA NRG MAN - The Power of Gasoline
~ She Devil (taken from Initial D Battle Stage)
~ V.A - Rock of the Nation


http://i29.photobucket.com/albums/c295/takumi_1984/index_bg.jpg

M.O.V.E (SYNERGY ALBUM) :

01. VENUS IN PARADISE <8:48>
02. Romancing Train <5:01>
03. Come together [RADIO EDIT] <5:12>
04. LET'S ROCK!! <7:13>
05. Promised Land ~bless into the sunshine~ <5:43>
06. Season in my mind <4:41>
07. 7DAYS OF LOVE <5:07>
08. SUPER SONIC DANCE <4:35>
09. Blue Jewel <5:48>
10. FLY ME SO HIGH <5:14>
11. 1969 <4:22>
12. Creamy Soup <4:45>
13. U.S.A. <10:09>

Erius
10-12-2005, 22:35
Awas! Ukuran gambar 154 KB!
***Bagi yang tidak ingin melihat gambar ini silakan di adblock atau stop loading sekarang juga***

http://img227.imageshack.us/img227/5969/awake1wv.jpg

Initial D
11-12-2005, 16:02
Super Eurobeat Music 3 :


~ Ayumi Hamasaki - Trauma (Eurobeat Mix) [4 : 40]

~ Fastway - Young & Wild [3 : 44]

~ Priscilla - Deep Into Your Love [2 : 48]

~ Lucya - Kiss Me Tonight [2 : 41]

~ Ace - Play The Music [2 : 24]

~ Christine - You & I [2 : 22]

~ Christine - Crazy Generation [3 : 29]

~ Kika - In Your Eyes [2 : 44]

~ Ace Warrior - Black Roses [3 : 11]

~ Ace Warrior - Fame [2 : 25]

~ Ace - Don't Go [2 : 52]

~ Nick Mansell - In The Sky, In Your Soul [2 : 53]

~ Ace - TV Hero [3 : 15]

~ Arena 69 - Tokyo [2 : 05]

~ Ace - Don't Stop The Dance [3 : 07]

~ Nick Mansell - Freedom Wild [2 : 59]

~ Ace - Fantasista! [4 : 01]

~ Van T.K. - Rockin' Dome [2 : 52]

~ Ace Warrior - Blem Blem [2 : 36]

~ The Spiders From Mars - Day & Night [2 : 58]

~ Various Artist - Eurobeat Counterattack 3 NONSTOP MEGAMIX [51 : 21]



Super Eurobeat Christmas Music part I :

1. Ace feat Brubell Girl & Child Chor - Holy X'maz Night [4 : 21]
2. 7th Heaven - Last Christmas [6 : 15]
3. Betty Blue - Last Christmas [4 : 21]
4. Vibration All Star - Do They Know It's Christmas Time [4 : 14]
5. Xmaz Band - Christmas Party Night [4 : 44]
6. Suzy Lazy - Happy Xmas (War is Over) [4 : 14]
7. Delta Queens - Silent Night [3 : 59]
8. Marko Polo - Peace and Love for Christmas [4 : 36]
9. Natalia White - Jingle Bell [4 : 12]
10. Jingle Bell - Oh Happy Day [4 : 09]
11. Live Music Gang - Christmas Party Tokyo Night [4 : 34]
12. Niki Niki - Wonderful Night [4 : 19]
13. Sophie - White Christmas [4 : 25]
14. Time All Star - Happy Xmas - Merry Xmas [4 : 18]
15. Dave Rodgers - All I Want For Christmas Is You [4 : 12]
16. Lolita & Alexandra - Santa Claus is Coming to Town [4 : 27]
17. A.Beat All Stars - Lets Have A Merry - Xmas [4 : 27]

Merry X'maz Everyone. Hope your wishes come true at X'maz Eve.

May God Bless u & Forgive your Sins

Udin Petot
12-12-2005, 04:02
Lagi dengerin lagu yang ada di warnet terdekat neh...lagunya Jody...yang judulnya "Gue Ingin Elo Ada disini...." Kalo ga salah loh....hahaha...lagi terdampar di Bandung neh....ada kawinan sodara jadi meluncur di Kota Kembang ini...surping dulu ah....;)
Super Bejo nama groupnya yah Yos, judulnya Gua Ingin

Udin Petot
12-12-2005, 04:06
Meat Loaf - I Would Do Anything For Love (But I Won't Do That)



And I would do anything for love,
I'd run right into hell and back,
I would do anything for love,
I'll never lie to you and thats a fact.

But I'll never forget the way you feel right now
- Oh no -
- No way -
And I would do anything for love,
But I won't do that,
No I won't do-

Anything for love,
Oh I would do anything for love,
I would do anything for love,
But I won't do that,
No I won't do that

And some days it don't come easy,
And some days it don't come hard
Some days it don't come at all,
And these are the days that never end.

And some nights you're breathing fire,
And some nights you're carved in ice,
Some nights you're like nothing I've ever
Seen before, or will again.

And maybe I'm crazy,
Oh it's crazy and it's true,
I know you can save me,
No one else can save me now but you.

As long as the planets are turning,
As long as the stars are burning,
As long as your dreams are coming true-
You better believe it!

That I would do anything for love!
And I'll be there till the final act
And I would do anything for love!
And I'll take the vow and seal a pact

But I'll never forgive myself if we don't go all the way,
Tonight.

And I would do anything for love!
Oh I would do anything for love!
Oh I would do anything for love!
But I won't do that!
No I won't do that!

I would do anything for love,
Anything you've been dreaming of,
But I just won't do that...

I would do anything for love,
Anything you've been dreaming of,
But I just won't do that...

I would do anything for love,
Anything you've been dreaming of,
But I just won't do that...

And some days I pray for Silence,
And some days I pray for Soul,
Some days I just pray to the God
Of Sex and Drums and Rock 'N' Roll.

And some nights I lose the feeling
And some nights I lose control
Some nights I just lose it all
When I watch you dance and the thunder rolls

And maybe I'm lonely,
That's all I'm qualified to be,
There's just one and only,
One and only promise I can keep.

As long as the wheels are turning,
As long as the fires are burning,
As long as your prayers are coming true
You better believe it!

That I would do anything for love!
And you know it's true and thats a fact,
I would do anything for love!
And there'll never be no turning back

But I'll never do it better than I do it with you,
So long
So long

And I would do anything for love,
Oh, I would do anything for love,
I would do anything for love,
But I won't do that, No,
No. No, I won't do that!

I would do anything for love,
Anything you've been dreaming of,
But I just won't do that...

I would do anything for love,
Anything you've been dreaming of,
But I just won't do that...

I would do anything for love,
Anything you've been dreaming of,
But I just won't do that...

I would do anything for love,
Anything you've been dreaming of,
But I just won't do that...

I would do anything for love,
Anything you've been dreaming of,
But I just won't do that...

I would do anything for love,
Anything you've been dreaming of,
But I just won't do that...

I would do anything for love,
Anything you've been dreaming of,
But I just won't do...

But I'll never stop dreaming of you every night of my life,
No way

And I would do anything for love,
Oh I would do anything for love,
Oh I would do anything for love,
But I won't do that,
No I won't do that.

Girl: Will you raise me up?
Will you help me down?
Will you help get me right out of this Godforsaken town?
Will you make it all a little less cold?

Meat Loaf: I can do that!
I can do that!

Girl: Will you hold me sacred,
Will you hold me tight.
Will you colorize my life,
I'm so sick of black and white!
Can you make it all a little less old.

Meat Loaf: I can do that!
Oh, Oh, I can do that!

Girl: Will you make me some magic with your own two hands?
Can you build an Emerald city with these grains of sand?
Can you give me something I can take home?

Meatloaf: I can do that
I can do that

Girl: Will you cater to every fantasy I've got?
Will ya hose me down with holy water - If I get too hot?
Will you take me to places I'll never know?

Meat Loaf: I can do that!
I can do that!

Girl: After a while you'll forget everything,
Just a brief interlude, and a mid-summer night's fling,
Then you'll see that it's time to move on.

Meat Loaf: I won't do that.
I won't do that.

Girl: I know the territory - I've been around,
It'll all turn to dust and we'll all fall down,
Sooner or later you'll be screwing around.

Meat Loaf: I won't do that!
No I won't do that!

Anything for love,
Oh I would do anything for love!
I would do anything for love!
But I won't do that!
No I won't do that...

Udin Petot
12-12-2005, 04:09
ACDC - You Shook Me All Night Long



Intro:
E|--3~-------------5--|----3--3-----3--2--------|---------------------|
B|--3~-------------3--|----3-----3--------3-----|--3------------------|
G|--0~-------------0--|-------------------------|--2------------2--2--|
D|--------------------|----------------------0--|--0------------3b-0--|
A|--------------------|-------------------------|---------------------|
E|--------------------|-------------------------|---------------------|

|-----------------------|--3~-------------5--|----3--3-----3--2--------|
|--------------3--------|--3~-------------3--|----3-----3--------3-----|
|--------------2--------|--0~-------------0--|-------------------------|
|--------3/-4-----3b-0--|--------------------|----------------------0--|
|-----------------------|--------------------|-------------------------|
|-----------------------|--------------------|-------------------------|

|--2----------------|------------------|
|--3----------------|------------------|
|--2----------------|------------------|
|--0----------------|------------------|
|-------------------|------------------|
|-------------------|------------------|


Verse:
|---3-----------------|-----------------------|----------------3--|
|---3--------------1--|----1--3----1----3--3--|----------------3--|
|---0--------------0--|----0--0----0----0--2--|----------------0--|
|---0--------------2--|----2--0----2----0--0--|----------------0--|
|------------------3--|----3-------3----------|-------------------|
|---3-----------------|-------3---------3-----|----------------3--|

|----3------------------|--3-----------------|--------------------2--|
|----3--3----3----3-----|--3--------------1--|-------0----1----3--3--|
|----0--2----0----2-----|--0--------------0--|-------0----0----0--2--|
|----0--0----0----0-----|--0--------------2--|-------0----2----0--0--|
|-----------------------|-----------------3--|----3--2----3----------|
|----3-------3----------|--3-----------------|-------3---------3-----|

|------------2-----3--|----3--------3---------|
|------------3-----3--|----3--3--3--3----3----|
|------------2-----0--|----0--2--2--0----2----|
|------------0-----0--|----0--0--0--0----0----|
|---------------0-----|-----------------------|
|------------------3--|----3--------3---------|


Chorus:
|-----------------------|-------------------------|
|-------3---------------|-------3--------3-----3--|
|--0----0---------------|----0-----------------2--|
|--0----0---------------|-------------------0--0--|
|--------------0--2--3--|----------2--2-----------|
|--3----3---------------|-------------------------|

|-----------------------|-------3---------3----|-----------------------|
|------3----3-----------|-------3---------3----|-------3---------------|
|------2----2-----------|----0-----0------0----|--0----0---------------|
|------0----0-----------|----------------------|--0----0---------------|
|------0----0--0--2--3--|----------2-----------|--------------0--2--3--|
|-----------------------|----------------------|--3----3---------------|

|-------------------------|-----------------------|----------------------|
|-------3--------3-----3--|------3----3-----------|-------3--3-----------|
|----0-----------------2--|------2----2-----------|----0-----0-----------|
|-------------------0--0--|------0----0-----------|----------------------|
|----------2--2-----------|------0----0--0--2--3--|----------2------2----|
|-------------------------|-----------------------|----------------------|

Udin Petot
12-12-2005, 04:27
Kid Rock - Only God Knows Why



Tuning: E A D G B E
Effects: Distortions, Acoustics, Clean Tones
Guitar: Electric 6-string
Style: Hip Hop



Intro:
GUITAR 1:
+ + + + + + + + + + + + + + + +
e:-0---------------|-----------------|-----------------|-0-----0---------|
B:-0---------------|-4---------4-----|-2---------------|-0-----0--0------|
G:-1---------------|-4-4-4-----4-----|-2---2-4-4p2p0---|-1--1-----1------|
D:-2---------------|-4-4-4-6---4-----|-2---2-----------|-2--2-----2------|
A:-2---------------|-2-2-2-2---2-----|-0---0-----------|-2--2------------|
E:-0---------------|-----------------|-----------------|-0----------0-3~~|
GUITAR 2: 1/2 I've
e:-----------------|-----------------|---12-12---------|-----------------|
B:--------12~~~----|-----10~~-9--9^--|------10---------|-----------------|
G:-----------------|-----------------|-----------------|---9/10~~--------|
D:-----------------|-----------------|-----------------|---9/10~~--------|
A:-----------------|-----------------|-----------------|-----------------|
E:-----------------|-----------------|-----------------|-----------------|

Verse:
Full
+ + + + + + + + + + + + + + + +
e:-0---0-----0--0--|-----------------|-----------------|-0---------------|
B:-0---0---0-0--0--|-4-------5---4---|-2---------2-2---|-0---------------|
G:-1---1---1-1--1--|-4-------4-4-4---|-2-------2-2-2-2-|-2---------------|
D:-2---2---2-2-----|-4-------4-4-4---|-2-------2-2-2---|-2---------------|
A:-2---2-----2-----|-2-------2-2-2---|-0---------0-----|-1---------------|
E:-0---0-----0-----|-----------------|-----------------|-0----0-3~~-0-2^-|
been.. find myself.. I need to.. FULL 1/2
e:-----------------|-----------------|-----------------|------7---12-----|
B:-5---------------|-----------------|-----------------|------7^----12---|
G:-4---------------|-----------------|-----------------|--------------11^|
D:-6---------------|--4h6----7-9-----|-7---------------|-----------------|
A:-----------------|-----------------|-7---------------|-----------------|
E:-----------------|-----------------|-----------------|-----------------|



+ + + + + + + + + + + + + + + +
e:-----0-----------|-----------------|-----------------|-0---------------|
B:-----0-----------|-4---4-4-4-------|-2------2--------|-0---------------|
G:-----1-----------|-4---4-4-4---4-4-|-2--2---2--------|-1---------------|
D:-----2-----------|-4---4-4-4---4-4-|-2--2---2--------|-2---------------|
A:-----2-------2---|-2-------2-------|-0--0---0--------|-2---------------|
E:-0-----------0-0-|-----------------|-----------------|-0---------------|
Listen for the playback Every man bleeds And I feel..
e:-----------------|-----------------|-----------------|-----------------|
B:-----------------|-----------------|-----------------|-----------------|
G:-----------------|-----------------|-----------------|-----4h6-0-4h6p4-|
D:-----------------|---------9h11----|-9h11-7~~--------|-----------------|
A:-----------------|-----9h11----9h11|-----------------|-----------------|
E:-----------------|-----------------|-----------------|-----------------|



+ + + + + + + + + + + + + + + +
e:-----------------|-----------------|-----------------|-----------------|
B:-GUITAR-1--------|-----------------|-----------------|-----------------|
G:----REPEAT-------|-----------------|-----------------|-----------------|
D:-------VERSE...--|-----------------|-----------------|-----------------|
A:-----------------|-----------------|-----------------|-----------------|
E:-----------------|-----------------|-----------------|-----------------|
number one.. FULL younger son..
e:--------7-12-----|-7---------------|------12---12-12-|-12--------------|
B:--------7----12--|-7-12------------|---9^----9-----9-|--9--------------|
G:-----------------|------11-11^--~~-|-----------------|-----------------|
D:-----------------|-----------------|-----------------|-----------------|
A:-----------------|-----------------|-----------------|-----------------|
E:-----------------|-----------------|-----------------|-----------------|



+ + + + + + + + + + + + + + + +
e:-----------------|-----------------|-----------------|-----------------|
B:-----------------|-----------------|-----------------|-----------------|
G:-----------------|-----------------|-----------------|-----------------|
D:-----------------|-----------------|-----------------|-----------------|
A:-----------------|-----------------|-----------------|-----------------|
E:-----------------|-----------------|-----------------|-----------------|
many pills.. ease the pain.. dollar bills... feel the same..
e:-12--12------12--|-----------------|-----------------|-----------------|
B:--9^----9--------|-5h7~~~-14^------|-12~~~----12h14~-|---------5/7---5-|
G:-----------------|-----------------|-----------------|---------4/6---4-|
D:-----------------|-----------------|-----------------|-----------------|
A:-----------------|-----------------|-----------------|-----------------|
E:-----------------|-----------------|-----------------|-----------------|


VERSE 3:
+ + + + + + + + + + + + + + + +
e:-0-0-----0----0--|-----------------|-----------------|-0-0-------0---0-|
B:-0-0-----0--0-0--|-4-4-------4-4-4-|---2-2-3-3-3-2-2-|-0-0---0-0-0---0-|
G:-2-2---2-2--2-2--|-4-4--4-4--4-4-4-|-2-2-2-2-2-2-2-2-|-2-2---2-2-2---2-|
D:-2-2---2-2--2-2--|-4-4--4-4--4-4-4-|-2-2-2-2-2-2-2-2-|-2-2---2-2-2-2-2-|
A:-1-1---1-1----1--|-2-2--2-2--2-2-2-|-0-0-0---0-0-----|-1-1---1-1-1-1-1-|
E:-0-0-----0----0--|-----------------|-----------------|-0-0-----0-0---0-|
knows my name.. A lot of folks **** with me in a crowd
e:-----------------|-----------------|----12-----------|-----------------|
B:-5----------12---|-----------------|-9^----9^-~~~----|-12----------9h11|
G:-4-------11^--11-|-9h11~~~~~~~~----|-----------------|----12^-p9h11----|
D:-----------------|-----------------|-----------------|-----------------|
A:-----------------|-----------------|-----------------|-----------------|
E:-----------------|-----------------|-----------------|-----------------|



+ + + + + + + + + + + +
e:-0-0-----0----0--|-0---0-0--0----0-|-0---------0-------0-0-0-0-|
B:-0-0---0-0----0--|-0---0-0--0--0-0-|-0---0-----0-------0-0-0-0-|
G:-2-2-2-2-2----2--|-2---2-2--2--2-2-|-2---2-----2-------2-2-2-2-|
D:-2-2-2-2-2-2--2--|-2---2-2--2--2-2-|-2---2-----2-------2-2-2-2-|
A:-1-1-1-1-1-1--1--|-1---1-1--1----1-|-1---------1-------1-1-1-1-|
E:-0-0-----0----0--|-0---0---------0-|-0---------0-------0---0---|
guess thats the shot like i am
e:-----------------|-----------------|-------15^-15-12-----------|
B:-----------------|-----12-12-15^---|-15-12-----------12-15^-12-|
G:-9h11-9~~~-------|-14^-------------|---------------------------|
D:-----------------|-----------------|---------------------------|
A:-----------------|-----------------|---------------------------|
E:-----------------|-----------------|---------------------------|



+ + + + + + + +
e:-----------------------------|-0--0--0--0--0--0-----------|
B:-2-----2----------2---2-2-2--|-0--0--0--0--0--0-----------|
G:-2---2-3---3-2----2---2-2-2--|-2--2--2--2--2--2-----------|
D:-2---2-4---4-2----2---2-2-2--|-2--2--2--2--2--2-----------|
A:-0---0-0---0-0----0---0-0-0--|-1--1--1--1--1--1-----------|
E:-----------------------------|-0--0--0--0--0--0-----------|
Outstretched hands and one.. Still I can't find love
e:-----------------12----------|----------------------------|
B:-12h15-12-----12----14^p12---|----------------------------|
G:----------14^-------------14-|-12---14p12h14----12----12^-|
D:-----------------------------|---14----------14----14-----|
A:-----------------------------|----------------------------|
E:-----------------------------|----------------------------|


BRIDGE:
+ + + + + + + +
e:-4--------4-----4------4-----|----------------------0----0-|
B:-5--5--5--5-----5---5--5-----|----------------------0--0-0-|
G:-6--6--6--6-----6---6--6-----|-3--------------------2--2-2-|
D:-6--6--6--6-----6---6--6-----|-4--4----4----4-------2--2-2-|
A:-4--4--4--4-----4---4--4-----|-4--4----4----4-------1----1-|
E:-----------------------------|-2--2----2----2-------0----0-|
And when your walls come tumblin'
e:-----------------------------|-----------------------------|
B:---12------------------------|-----------------------------|
G:------12^--9----9-11-11p9----|-9h11-9h11-9h11-6~~~~--------|
D:-------------11-----------11-|-----------------------------|
A:-----------------------------|-----------------------------|
E:-----------------------------|-----------------------------|


END BRIDGE
+ + + + + + + +
e:----4---4--4---------4--4----|-------------------------------|
B:-5--5---5--5------5--5--5----|---------------2---------------|
G:-6--6---6--6----6-6--6--6----|---------------2---------------|
D:-6--6---6--6----6-6--6--6----|-4------4------2---------------|
A:-4--4---4--4----4-4-----4----|-4------4------0---------------|
E:-----------------------------|-2------2----------------------|

e:-----------------------------|-------------9----12-12^--12^--|
B:-----9-----------------------|-9h12p9h12^----12--------------|
G:-----9------9h11p9-----11^---|-------------------------------|
D:--------11---------11~~------|-------------------------------|
A:-/11----11-------------------|-------------------------------|
E:-----------------------------|-------------------------------|


SOLO:
+ + + + + + + + + + + +
e:-----------------------------|------------------------|--------------------------|
B:-STRUM-FOLLOWING-CHORDS------|------------------------|--------------------------|
G:-ON-GUITAR-1:----------------|------------------------|--------------------------|
D:-----------------------------|------------------------|--------------------------|
A:-E..........................-|-B.....................-|-D........A..............-|
E:-----------------------------|------------------------|--------------------------|

e:-----12----------------------|------------------------|--------------------------|
B:-6~~----12-------------------|------------------------|-10p9---------------------|
G:-----------11-------9--------|-9h11~~--11p9-11---9^---|-----9h11-11p9------------|
D:------------------------11---|------------------------|---------------9h11-11-11-|
A:-----------------------------|------------------------|--------------------------|
E:-----------------------------|------------------------|--------------------------|



+ + + + + + + + + + + +
e:-----------------|---------------------------|-------------------------|
B:-----------------|---------------------------|-------------------------|
G:-----------------|---------------------------|-------------------------|
D:-----------------|---------------------------|-------------------------|
A:-A..............-|-E........................-|-E......................-|
E:-----------------|---------------------------|-------------------------|

e:-----------------|---------------------------|-------------------------|
B:-----------------|---------------------------|-------------------------|
G:-----------------|-----11-11-13-13-13-14-13--|-13-11-13~~~--4h6--------|
D:-9h11------------|-----X---X--X--X--X--X--X--|--X--X--X--------6p4p2-2-|
A:------9h11-9-11--|-9-7-9---9-11-11-11-12-11--|-11--9-11~~~----------4--|
E:-----------------|---------------------------|-------------------------|



+ + + + + + + + + + + +
e:---------------------------|-------------------------|-0------0----------|
B:---------------------------|-------------------------|-0------0----------|
G:---------------------------|-------------------------|-1------1--1-------|
D:---------------------------|-------------------------|-2------2--2-------|
A:-B........................-|-D.......A..............-|-2------2--2--7----|
E:---------------------------|-------------------------|-0------0-------11-|

e:---------------------------|-----------------------12|------------12-12--|
B:---------------------------|-------5----7------------|-12------9^-----9--|
G:---------------------------|-6p4-4-4----6----X-11^---|----11^------------|
D:-4-4-2---------------4/6-0-|-------------------------|-------------------|
A:-------4-2-4-4-2-4p2-------|-------------------------|-------------------|
E:---------------------------|-------------------------|-------------------|



+ + + + + + + + + + + +
e:-----------------|-----------------------|------------------|
B:-----------------|-----------------------|------------------|
G:-(REPEAT---------|-----------------------|------------------|
D:-----BRIDGE------|-----------------------|------------------|
A:---ON-GUITAR-1)--|-----------------------|------------------|
E:-----------------|-----------------------|------------------|

e:-----------------|--------4/6-6^---------|-------------9----|
B:-9-9-------------|--------5/7-7^---------|--12-------9---12-|
G:-----------------|-11^--9-----------9----|-----11^----------|
D:-----------------|--------------------11-|------------------|
A:-----------------|-----------------------|------------------|
E:-----------------|-----------------------|------------------|


LAST VERSE:
+ + + + + + + + + + + + + + + +
e:---------------------|---------------------|-----------------|-----------------|
B:---------------------|---------------------|-----------------|-----------------|
G:---------------------|-REPEAT-VERSE-CHORDS-|-----------------|-----------------|
D:---------------------|---------------------|-----------------|-----------------|
A:---------------------|---------------------|-----------------|-----------------|
E:---------------------|---------------------|-----------------|-----------------|
People dont.. They don't understand
e:---------------------|---------------------|-----------------|-----------------|
B:------12-----12------|---------------------|-----------------|-6/8-8-8-8-------|
G:---------11^----11^--|-9~~-----------------|-----------------|-----------------|
D:---------------------|---------------------|-----------------|-----------------|
A:---------------------|---------------------|-----------------|-----------------|
E:---------------------|---------------------|-----------------|-----------------|



+ + + + + + + + + + + + + + + +
e:-------------------|-----------------|-----------------|-----------------|
B:-------------------|-----------------|-----------------|-----------------|
G:-------------------|-----------------|-----------------|-----------------|
D:-------------------|-----------------|-----------------|-----------------|
A:-------------------|-----------------|-----------------|-----------------|
E:-------------------|-----------------|-----------------|-----------------|
been through.. been so long been home been gone for way
e:-------------------|--12-------------|-----------------|-----------------|
B:--------------11^--|-----12----------|-----------------|--------------9^-|
G:-------------------|--------11^--9~~-|-11~~------------|-----------------|
D:-------------------|-----------------|-----------------|-----------------|
A:-------------------|-----------------|-----------------|-----------------|
E:-------------------|-----------------|-----------------|-----------------|



+ + + + + + + +
e:-----------------|-----------------|-|
B:-----------------|-----------------|-|
G:-----------------|-CONTINUE-PLAYInG|-|
D:-----------------|-VERSE-ChorDS-FOR|-|
A:-----------------|-GUItAR-1--------|-|
E:-----------------|-----------------|-|
too long Maybe I forgot...
e:--------------12-|-------------12--|-|
B:------9^-------9-|-----9p10h9--12--|-|
G:-----------------|-----------------|-|
D:-----------------|-----------------|-|
A:-----------------|-----------------|-|
E:-----------------|-----------------|-|

Warlords
12-12-2005, 07:54
Charades, pop skill
Water hyacinth, named by a poet.
Imitation of life
Like a koi in a frozen pond
Like a goldfish in a bowl
I don’t want to hear you cry

Thats sugarcane that tasted good
Thats cinnamon thats hollywood
C’mon c’mon no one can see you try

You want the greatest thing
The greatest thing since bread came sliced.
You’ve got it all, you’ve got it sized.
Like a friday fashion show teenager
Freezing in the corner
Trying to look like you don’t try

Thats sugarcane that tasted good.
Thats cinnamon thats hollywood
C’mon c’mon no one can see you try

No one can see you cry

Thats sugarcane that tasted good
Thats freezing rain thats what you could
C’mon c’mon no one can see you cry

This sugarcane
This lemonade
This hurricane, I’m not afraid.
C’mon c’mon no one can see me cry
This lightning storm
This tidal wave
This avalanche, I’m not afraid.
C’mon c’mon no one can see me cry

Thats sugarcane that tasted good
Thats who you are, thats what you could
C’mon c’mon no one can see you cry

Thats sugarcane that tasted good
Thats who you are, thats what you could
C’mon c’mon no one can see you cry

kaitar
12-12-2005, 08:19
Soundtrack The Man in the Iron Mask
Soundtrack Fellowship of the ring.
Soundtrack Brother Bear

lagu2 di atas beli dr audiostore.ru.. murah meriah

yossie3660
12-12-2005, 09:24
Lagu santai dipagi hari yang ceria ini....;)

Ebiet\Seraut Wajah....

RYDHO
12-12-2005, 12:56
mo tau aja:D

anca
12-12-2005, 13:10
lg bad mood today..

lg dengerin lagu yang bisa bikin jingkrak2..

My Chemical Romance - 1 Album
System Of A Down - B.Y.O.B n Toxicity
Linkin Park
Greed Day

js1000g
12-12-2005, 13:13
santana feat steven tyler - just feel better

jef
12-12-2005, 13:30
http://umusicimages.ca/riseagainst/cd_sirensongofthe.jpg

dewanggaba
12-12-2005, 19:05
@Udin, kamu anak band yach?

BTw, lagi dengerin lagunya Britney feat. Usher - Yeah Toxic (Blend Remix)

HiBiKi
12-12-2005, 19:22
yahoooooo..... post ke-1000 di thread ini... :D

sekarang lagi denger Planetarium - Ootsuka Ai.... ^_^